Accordium Delectus Подборка аккордов Главная Отзывы Заявка на песню Аккорды Табы Новости Видео Статьи FAQ О сайте
А   Б   В   Г   Д   Е   Ё   Ж   З   И   Й   К   Л   М   Н   О   П   Р   С   Т   У   Ф   Х   Ц   Ч   Ш   Щ   Э   Ю   Я
 
A   B   C   D   E   F   G   H   I   J   K   L   M   N   O   P   Q   R   S   T   U   V   W   Y   Z                       0...9
Разделы сайта
                   
Настройка гитары
1-я струна E  

2-я струна H  

3-я струна G  

4-я струна D  

5-я струна A  

6-я струна E  
Главная > М > Малинин Александр > Лето провожая

Александр Малинин: Лето провожая



Вступление:

E|-------2-3-2~3~2-0----------2----------2-3-2~3~2-0----------0--|

H|-----5-------------0------5----------1-------------0------0----|

G|---4--------------------4----------2--------------------0------|

D|-2--------------------0----------------------------------------|

A|---------------------------------0-----------------------------|

E|------------------------------------------------------3--------|

Соло

E|-5>7-8-------7>--5---3-----------------------------------------|

H|---------------------------------5>7-5-----------7>--4---------|

G|-5>7-9-------7>--5---4-----------------------------------------|

D|---------------------------------5>7-5-----------7>--4---------|


E|-----------0-------2-------3-------3---------2---------------2-|

H|---------1-------4-------5-------5-------5-------5-------4-----|

G|-------2-------2-------4-------4-------4---4---4---4---2---2---|

D|---------------------2-------0---------------------------------|

A|-------------2-----------------------3---------------2---------|

E|-----2---------------------------------------------------------|


            Em            Esus2          Em7  E7sus2
Ветер снов         надо мною
 Am7          Emadd9                 
Пролетит и коснётся моих плеч,
       Cmaj7-5(2)         Am6   
Он на флейте мне сыграет,
             H7                                Em7(2)  Em6
А о чём - и сам не знает, ну и пусть,
             F#-5           H7    
Пусть развеет мою грусть

Журавли улетают,
Вдалеке слышен их прощальный крик
Знать, зима не за горами,
Мы с тобой об этом знали в эту ночь
         F#7sus4       Cmaj7-5              H7    
Всё, что было между нами - не вернёшь

Припев:

                  Em                  Am              Am+7
Лето провожая, гонит осень стаи,
Am7(2) Am6         Fmaj7           H7
К югу      улетают           журавли
               Em                     A7sus4            A7
Солнца луч усталый в небесах растает,
           D7    Gmaj7  
Птиц уносит вдаль,
  Cmaj7 Am/F#     C7  H7 Em
А моя  печаль остаё-о-о-тся

Проигрыш:

Em  E7sus2  F#7sus4  Cmaj7-5 H7 - 2 раза

За окном дождь колдует,
Листопад кружит красно-жёлтый вальс
А было время - мы встречали
Эти сказочные дали белых птиц
И весной с тобой мечтали о любви...

Припев.

Проигрыш:

Em  E7sus2  Cmaj7-5  Am(2) H7

Em  E7sus2  Cmaj7-5  Am C#7

Переход на 1 тон (на 2 лада) выше (F#m)

Припев:

              F#madd9     F#m        Hm              Hm+7
Лето провожая,       гонит осень стаи,
   Hm7 Hm6        Gmaj7(2)         C#7
К югу   улетают              журавли
            F#madd9          F#m       H7sus4            H7
Солнца луч усталый        в небесах растает,
           E7   Amaj7  
Птиц уносит вдаль,
                 Dmaj7 Hm/F#   D7(2) C#7 F#m  Eadd9 
А моя   печаль остаё-о-о-о-тся

Птиц уносит вдаль,
А моя печаль остаё-о-о-тся

Птиц уносит вдаль,
          Dmaj7 Hm/F#   D7(2) C#7 F#m(2)
А моя    печаль остаё-о-о-о-тся

Окончание:

F#m(2)  F#m7  F#m6  Hm/D C#7 - 2 раза F#m(2)
 
 
Новые добавления
Статистика

Онлайн всего: 34
Гостей: 33
Пользователей: 1
Justas

Яндекс.Метрика

Вход на сайт