Accordium Delectus Подборка аккордов Главная Отзывы Заявка на песню Аккорды Табы Новости Видео Статьи FAQ О сайте
А   Б   В   Г   Д   Е   Ё   Ж   З   И   Й   К   Л   М   Н   О   П   Р   С   Т   У   Ф   Х   Ц   Ч   Ш   Щ   Э   Ю   Я
 
A   B   C   D   E   F   G   H   I   J   K   L   M   N   O   P   Q   R   S   T   U   V   W   Y   Z                       0...9
Разделы сайта
                   
Настройка гитары
1-я струна E  

2-я струна H  

3-я струна G  

4-я струна D  

5-я струна A  

6-я струна E  
Главная > Н > Новиков Александр > Красные и белые

Александр Новиков - Красные и белые Текст песни с аккордами



В оригинале на 1 тон ниже (Dm)


Вступление (примерный вариант):

E|-0----0-2-3-5-5>7-7-----5------------3-2----------0--------------0-----|

H|-0------------------5-------5------0------------0---0----------0---0---|

G|-0--------------------5---5------2------------0-------0------0-------0-|

D|-2-----------------------------4---------------------------------------|

A|-2----------------0----------------------------------------2-----------|

E|-0------------------------------------------0--------------------------|


    Em                      
Поделились и люто, и наспех,
       C        H7
И в пучину без дна
       Am7      D        G      
В поле поровну белых и красных,
      C      H7
А Россия - одна

       C                    G   
Шашки наголо, шпоры - с размаху,
       Dm    E   Am 
Чья, выходит, права?
     D                   G  
Покатилась крестами на плаху
     C   H7   Em 
   Золочёная голова...

Припев:

Am7                 D7            
А с небес, над простёртым телом,
Gmaj7            Cmaj7         
Ангел чёрный на гуслях, чу:
Am                   F#dim7            Em    C
"Не желаю быть красным, не желаю быть белым,
  F#m7-5     H7/D#     Em 
   Россиянином, просто, хочу..."

Проигрыш (примерный вариант):

E|-0-2-3-5-5>7-7-----5------------3-2----------0--------------2-----|

H|---------------5-------5------0------------0---0----------0---0---|

G|-----------------5---5------2------------0-------0------2-------2-|

D|--------------------------4---------------------------------------|

A|-------------0----------------------------------------2-----------|

E|---------------------------------------0--------------------------|



     Em     Em+7       Em7 
Разлетелись улыбки в осколки
И собрались в оскал
В поле красные, белые волки -
Злоба, боль и тоска!

Белой кости стена в эполетах,
Краснозвёздная серость-стена
Только кровь одинаковым цветом,
Да Россия одна...

Припев.

Проигрыш (примерный вариант):

E|--0-2-3-5-5>7-7-----5------------3-2------0--0-------0--0-|

H|----------------5-------5------0----------0--0-------0--0-|

G|------------------5---5------2------------0--0-------0--0-|

D|---------------------------4------------------------------|

A|--------------0------------------------------------2------|

E|----------------------------------------0-----------------|



        Em                   
Слёзы в нас, раскаяния, едки,
И безмерна вина
Два венца у гусарской рулетки,
А Россия - одна

Мы носить не желаем в петлицах
Крови цвет, цвет бинта
Огради впредь, Всевышний, делиться
На цвета, на цвета...

Припев:

Am7           D7            
Нам с небес, уже громогласно,
Gmaj7           Cmaj7      
Ангел мечется, голосит:
    Am             F#dim7     Em     C 
"Нет, не белый я! Нет, не красный!
  F#m7-5   H7/D#  Em
   Россиянин я, азм еси..."


Окончание (примерный вариант):

E|-0-2-3-5-5>7-7-----5------------3-2----0-|

H|---------------5-------5------0--------0-|

G|-----------------5---5------2----------0-|

D|--------------------------4------------2-|

A|-------------0-------------------------2-|

E|---------------------------------------0-|

                Россиянин я, азм еси...


 
Новые добавления
Наш опрос
ВИА-2016 Какой Вокально-инструментальный ансамбль вам больше всего нравится? (Финал, ноябрь-декабрь)
Всего ответов: 482
Статистика

Онлайн всего: 44
Гостей: 44
Пользователей: 0

Яндекс.Метрика

Вход на сайт