Accordium Delectus Подборка аккордов Главная Отзывы Заявка на песню Аккорды Табы Новости Видео Статьи FAQ О сайте
А   Б   В   Г   Д   Е   Ё   Ж   З   И   Й   К   Л   М   Н   О   П   Р   С   Т   У   Ф   Х   Ц   Ч   Ш   Щ   Э   Ю   Я
 
A   B   C   D   E   F   G   H   I   J   K   L   M   N   O   P   Q   R   S   T   U   V   W   Y   Z                       0...9
Разделы сайта
                   
Настройка гитары
1-я струна E  

2-я струна H  

3-я струна G  

4-я струна D  

5-я струна A  

6-я струна E  
Главная > С > Суханов Александр > Моя звезда

Александр Суханов: Моя звезда



Вступление (примерный вариант перебора):

  Em                        Am7          Am6            

E|-------3------0------------------3------2------------|

H|-0----------0-------0----0-1----------1-------1----1-|

G|----0-----0------0-----0------2-----2------2-----2---|

D|-----------------------------------------------------|

A|---------------------------0-------------------------|

E|-0---------------------------------------------------|

  D7         D7sus2        Gmaj7     G6                

E|-------2------0------------------2--0----------------|

H|-1-----1----1-1-----1----1-0-----0--0--0-------------|

G|----2-----2------2-----2------0--------0--0---0------|

D|-0---------------------------------------------------|

A|-----------------------------------------------------|

E|---------------------------3----------------3--------|

   C   Cadd9    C           Am         Am6              

E|--------------0---------------------0-2--------------|

H|-1-----3----3-------1----1-------1-------1-----------|

G|----0-----0------0-----0------2----------------2-----|

D|--------------------------------------------2--------|

A|-3------------3------------0-------------------------|

E|-----------------------------------------------------|

   H7       H7+5     H7                                 

E|----------2-3-----3-2-----------2--------------------|

H|-0-----0--0-0---0-0-0-----0-----0-----0--------------|

G|----2---------2--------2-----2-----2-----2-----------|

D|-----------------------------------------------------|

A|-2---------------------------------------------------|

E|-----------------------------------------------------|


             Em                         Am7  Am6
Среди миров, в мерцании светил
                  D7                 G
Одной звезды я повторяю имя
            E7                    Am7  Am6
Не потому, чтоб я её любил,
           D7                               G
А потому, что мне темно с другими
           Am       Am6       Em
Не потому, чтоб я её любил,
          F#          H7                Em
А потому, что мне темно с другими

Проигрыш=Вступление

И если мне на сердце тяжело,
Я у неё одной ищу ответа
Не потому, что от неё светло,
А потому, что с ней не надо света
Не потому, что от неё светло,
А потому, что с ней не надо света

Проигрыш=Вступление

Среди миров, в мерцании светил
Одной звезды я повторяю имя
Не потому, чтоб я её любил,
А потому, что мне темно с другими
Не потому, чтоб я её любил,
А потому, что мне темно с другими

Окончание:

  Em                        Am7          Am6            

E|-------3------0------------------3------2------------|

H|-0----------0-------0----0-1----------1-------1----1-|

G|----0-----0------0-----0------2-----2------2-----2---|

D|-----------------------------------------------------|

A|---------------------------0-------------------------|

E|-0---------------------------------------------------|

  D7         D7sus2        Gmaj7     G6                

E|-------2------0------------------2--0----------------|

H|-1-----1----1-1-----1----1-0-----0--0--0-------------|

G|----2-----2------2-----2------0--------0--0---0------|

D|-0---------------------------------------------------|

A|-----------------------------------------------------|

E|---------------------------3----------------3--------|

   C   Cadd9    C           Am         Am6              

E|--------------0---------------------0-2--------------|

H|-1-----3----3-------1----1-------1-------1-----------|

G|----0-----0------0-----0------2----------------2-----|

D|--------------------------------------------2--------|

A|-3------------3------------0-------------------------|

E|-----------------------------------------------------|

   H7       H7+5          Em                            

E|----------2-3------------------------0---------------|

H|-0-----0------0-----0----------------0---------------|

G|----2------------2----------------0------------------|

D|-------------------------------2---------------------|

A|-2--------------------------2------------------------|

E|-------------------------0---------------------------|

 
 
Новые добавления
Статистика

Онлайн всего: 77
Гостей: 77
Пользователей: 0

Яндекс.Метрика

Вход на сайт