Accordium Delectus Подборка аккордов Главная Отзывы Заявка на песню Аккорды Табы Новости Видео Статьи FAQ О сайте
А   Б   В   Г   Д   Е   Ё   Ж   З   И   Й   К   Л   М   Н   О   П   Р   С   Т   У   Ф   Х   Ц   Ч   Ш   Щ   Э   Ю   Я
 
A   B   C   D   E   F   G   H   I   J   K   L   M   N   O   P   Q   R   S   T   U   V   W   Y   Z                       0...9
Разделы сайта
                   
Настройка гитары
1-я струна E  

2-я струна H  

3-я струна G  

4-я струна D  

5-я струна A  

6-я струна E  

Главная > Г > Глызин Алексей > Ухожу от тебя

Алексей Глызин - Ухожу от тебя Текст песни с аккордами

Вступление (примерный вариант перебора):

  Dm             E7/G#           Am/G           F#m7-5              

E|---------1---------------0---------------5---------------5-------|

H|-----3-------3-------0-------0-------5-------5-------5-------5---|

G|---2---2---2---2---1---1---1---1---5---5---5---5---5---5---5---5-|

D|-0-----------------------------------------------4---------------|

A|-----------------------------------------------------------------|

E|-----------------4---------------3-------------------------------|

Соло (1-я струна)

E|-8-----------8---7-------8---7---7-----------7---5-------7---5---|

 Dm/F             E7             Am(5)                             

E|---------5---------------4---------------5---------5-------------|

H|-----3-------3-------3-------3-------5-------5-----5-------------|

G|---2---2---2---2---4---4---4---4---5---5---5---5---5-------------|

D|-3---------------2---------------------------------7-------------|

A|---------------------------------0-----------------0-------------|

E|-----------------------------------------------------------------|

Соло (1-я струна)

E|-5-----------5---4---------------5-------------------------------|


            Am                    Am/C                       Dm   Dm/F
Ухожу от тебя - так корабль порывает с землёю,
                        E                 E/G#                  Am7  E7sus4/A
И под белою пеною ширится бездна глубин
       Am                     G/H                       C      A/C#
Ухожу я один, возвращаюсь, обычно, с тобо-о-о-ю,
          Dm                       E                       Am    
Возвращаясь с тобою, остаюсь непременно один...

Припев:

               A7                A/C#                       Dm    Dm/F
И не ведаю я той дороги, что в полночь уводит,
                    H7                          H7/D#                       E  E/G#
Той развилки, что где-то, что где-то на Млечном Пути
                Am                  Am/C                    Dm    Dm/F
Так, наверное, люди из жизни друг друга уходят,
          E                       E/G#                        Am(5)
Разлюби, если можешь, а если не можешь – прости...


Ухожу от тебя - будто кто меня вырвал с корнями,
Наши руки, как ветви, а их просто так не разнять
По земле босоного, омытый твоими слезами,
Ухожу от тебя, а пути возвращаются вспять...

Припев.

Проигрыш:

  Dm              Am               F               E  

E|-1-----1-----1---0-----0-----0---1-----1-----1---0-|

H|---3-----3-----3---1-----1-----1---1-----1-----1---|

G|-----2-----2---------2-----2---------2-----2-------|

D|-0-------------------------------------------------|

A|-----------------0---------------------------------|

E|---------------------------------1---------------0-|

Соло (1-я, 2-я и 3-я струны)

E|-5-----3-----1-------------------5---------------7-|

H|-6-----5-----3---5-----3-----1---6---------------9-|

G|-----------------5-----4-----2---------------------|


Всё на свете едино - от чёрта до Господа Бога,
Я и ты нераздельны, тут хоть проклинай, хоть молись
Мы с тобою прожили всего быстротечных полгода,
А мне кажется нынче, что прожита целая жизнь...

Припев.

Окончание=Вступление

Похожая песня:

  
Новые добавления
Статистика

Онлайн всего: 64
Гостей: 64
Пользователей: 0

Яндекс.Метрика

Вход на сайт