Accordium Delectus Подборка аккордов Главная Отзывы Заявка на песню Аккорды Табы Новости Видео Статьи FAQ О сайте
А   Б   В   Г   Д   Е   Ё   Ж   З   И   Й   К   Л   М   Н   О   П   Р   С   Т   У   Ф   Х   Ц   Ч   Ш   Щ   Э   Ю   Я
 
A   B   C   D   E   F   G   H   I   J   K   L   M   N   O   P   Q   R   S   T   U   V   W   Y   Z                       0...9
Разделы сайта
                   
Настройка гитары
1-я струна E  

2-я струна H  

3-я струна G  

4-я струна D  

5-я струна A  

6-я струна E  
Главная > А > Альфа > Что такое "один"

Альфа - Что такое "один" Аккорды песни



Вступление:

           Em7                    Am7             

E|----------0-----------0----------5-----3-----5-|

H|----------------3--------------------5-----1---|

G|--------------0---0----------------5-----2-----|

D|-----0------2-------2-------0------------------|

A|-0-2---2----------------0-2---2--0-------------|

         E|----------0------------------------------------| - 3 раза


          Cadd9                     H7sus4        H7  

E|----------0-----------0--------------2-2-2-2-2-2-2-|

H|----------------3-----------3--------0-0-0-0-0-0-0-|

G|--------------0---0-----0-----0------2-2-2-2-2-2-2-|

D|-----0------2-------2-----2-----2----2-2-2-2-2-2-1-|

A|-0-2---2--3--------------------------2-2-2-2-2-2-2-|

E|---------------------------------------------------|


  Em                       Am                          

E|-------------0------------------------0------------|

H|-------0-------0---0------------1-------1---1------|

G|-----0---0-------0---0--------2---2-------2---2----|

D|---2-------0-----------2----2-------2-----------2--|

A|--------------------------0------------------------|

E|-0-------------------------------------------------|

Что такое "один"   —   это искра в огне,                                  

  Em           H7           Em                       

E|----------------------------------------0----------|

H|-------0------------0------------0------0----------|

G|-----0---0--------2---2--------0---0----0----------|

D|---2-------2----1-------1----2-------2--2----------|

A|--------------2-------------------------2----------|

E|-0-------------------------0------------0----------|

Это капля в реке   и   песчинка   на   дне                                    

  Em                       Am                         

E|-------------0------------------------0------------|

H|-------0-------0---0------------1-------1---1------|

G|-----0---0-------0---0--------2---2-------2---2----|

D|---2-------0-----------2----2-------2-----------2--|

A|--------------------------0------------------------|

E|-0-------------------------------------------------|

Ты не воин, поверь,  если   в   поле  один,                                  

  Em           H7           Em                       

E|---------------------------------------------------|

H|-------0------------0------------0-----------------|

G|-----0---0--------2---2--------0---0----------0---0|

D|---2-------2----1-------1----2-------2--2-1-2---4--|

A|--------------2------------------------------------|

E|-0-------------------------0-----------------------|

Если в море один       плывёшь среди льдин                                  


                                        Припев:

  Am                       Em                        

E|--------------------------------------------------|

H|-----1-----1-----1-----1------0-----0-----0-----0-|

G|---2-----2-----2-----2------0-----0-----0-----0---|

D|-------------------0------------------------------|

A|-0-----2-----3------------------------------2-----|

E|--------------------------0-----2-----3-----------|

                   Окружает нас мир  большой и грозный

  Am                       Em                        

E|--------------------------------------------------|

H|-----1-----1-----1-----1------0-----0-----0-----0-|

G|---2-----2-----2-----2------0-----0-----0-----0---|

D|-------------------0------------------------------|

A|-0-----2-----3------------------------------2-----|

E|--------------------------0-----2-----3-----------|

                   Потому что нас ждут   шипы и розы

  Am                       Hm                        

E|--------------------------------0-----------0-----|

H|-----1-----1-----1-----1----3-----3-----2-----2---|

G|---2-----2-----2-----2--------4-----4-----4-----4-|

D|-------------------0------------------------------|

A|-0-----2-----3------------2-----------2-----------|

E|--------------------------------------------------|

                 Время нам задаёт       свои вопросы

  Am                       H7                        

E|---------------------------------------2----------|

H|-----1-----1-----1-----1--------0------0----------|

G|---2-----2-----2-----2--------2---2----2----------|

D|-------------------0--------1-------1--1----------|

A|-0-----2-----3------------2------------2----------|

E|--------------------------------------------------|

                  Но ответить на них совсем не просто


Что такое мы все -
Золотая стена,
Яркий свет или мрак,
Вечный мир и война

Вместе можем мы всё,
В мире нас нет сильней,
Может Землю спасти
Единство людей!

Припев.

Проигрыш=Вступление

Припев - 2 раза.

Окончание:

  Am                       G                          

E|-------------0-----------------------3-------------|

H|-------1-------1---1-----------0-------0---0-------|

G|-----2---2-------2---2-------0---0-------0---0-----|

D|---2-------2-----------2---0-------0-----------0---|

A|-0-------------------------------------------------|

E|-------------------------3-------------------------|

   F                         Em                       

E|-------------1--------------0----------------------|

H|-------1-------1---1--------0----------------------|

G|-----2---2-------2---2------0----------------------|

D|---3-------3-----------3----2----------------------|

A|----------------------------2----------------------|

E|-1--------------------------0----------------------|

 
Новые добавления
Статистика

Онлайн всего: 94
Гостей: 94
Пользователей: 0

Яндекс.Метрика

Вход на сайт