Accordium Delectus Подборка аккордов Главная Отзывы Заявка на песню Аккорды Табы Новости Видео Статьи FAQ О сайте
А   Б   В   Г   Д   Е   Ё   Ж   З   И   Й   К   Л   М   Н   О   П   Р   С   Т   У   Ф   Х   Ц   Ч   Ш   Щ   Э   Ю   Я
 
A   B   C   D   E   F   G   H   I   J   K   L   M   N   O   P   Q   R   S   T   U   V   W   Y   Z                       0...9
Разделы сайта
                   
Настройка гитары
1-я струна E  

2-я струна H  

3-я струна G  

4-я струна D  

5-я струна A  

6-я струна E  
Главная > Песни из кино - и мультфильмов > Нас в набитых трамваях болтает...

Андрей Мягков - Нас в набитых трамваях болтает... (из к/ф "Служебный роман") Аккорды и текст песни




Вступление:

  Em                  Am     H7                  Em  

E|------3-2--0----3-2--0-----------2-0-------2-0--2-3---|

H|---0---------0---------1------0-------4-0-----------0-|

G|-3--------------------------3-------------------------|

D|------------------------------------------------------|

A|------------------------------------------------------|

E|------------------------------------------------------|

 

  Em                  Am     Em        H7        Em  

E|------3-2--0----3-2--0-5----2-3--5-3--0-2--3-2--------|

H|---0---------0----------------------------------4-5---|

G|-3----------------------------------------------------|

D|------------------------------------------------------|

A|------------------------------------------------------|

E|------------------------------------------------------|


                 Em                      F#m7 H7  
Нас в набитых трамваях болтает,
               Em           F#sus4 F#
Нас мотает одна маета,
             Am                 Hm7   E
Нас метро то и дело глотает,
               Am    Am/F#   H7sus4 H7
Выпуская из дымного рта

                 Em                        F#m7  H7  
В шумных улицах, в белом порхании -
                 Am        Am/F#        H7sus4 H7
Люди, ходим мы рядом с людьми
            Am        D7        Am     D7  
Перемешаны наши дыханья,
     Hm7-5      E          Am 
Перепутаны наши следы,
Am   Am7/G    Am/F#    H7         Em
  Пе-е-е-ре-е-е-е-путаны наши следы...

Проигрыш:

  Em                  Am     H7                  Em

E|------3-2--0----3-2--0-----------2-0-------2-0------|

H|---0---------0---------1------0-------4-0-------4-5-|

G|-3--------------------------3-----------------------|

D|----------------------------------------------------|

A|----------------------------------------------------|

E|----------------------------------------------------|


Из карманов мы курево тянем,
Популярные песни мычим
Задевая друг друга локтями,
Извиняемся или молчим

По Садовым, Лебяжьим и Трубным,
Каждый вроде отдельным путём,
Мы, не узнанные друг другом,
Задевая друг друга, идём,
Задевая друг друга, идём...

Окончание=Вступление

Примерный вариант боя:

 
Новые добавления
Статистика

Онлайн всего: 67
Гостей: 67
Пользователей: 0

Яндекс.Метрика

Вход на сайт