Accordium Delectus Подборка аккордов Главная Отзывы Заявка на песню Аккорды Табы Новости Видео Статьи FAQ О сайте
А   Б   В   Г   Д   Е   Ё   Ж   З   И   Й   К   Л   М   Н   О   П   Р   С   Т   У   Ф   Х   Ц   Ч   Ш   Щ   Э   Ю   Я
 
A   B   C   D   E   F   G   H   I   J   K   L   M   N   O   P   Q   R   S   T   U   V   W   Y   Z                       0...9
Разделы сайта
                   
Настройка гитары
1-я струна E  

2-я струна H  

3-я струна G  

4-я струна D  

5-я струна A  

6-я струна E  
Главная > Песни из кино - и мультфильмов > Нас в набитых трамваях болтает...

Андрей Мягков - Нас в набитых трамваях болтает... (из к/ф "Служебный роман") Аккорды песни, табы




Вступление:

  Fm                  Bm     C7                  Fm  

E|------4-3--1----4-3--1-----------3-1--0----3-1--3-4---|

H|-0-1---------1---------2----0-1---------1-----------1-|

G|------------------------------------------------------|

D|------------------------------------------------------|

A|------------------------------------------------------|

E|------------------------------------------------------|

 

  Fm                  Bm     Fm        C7        Fm  

E|------4-3--1----4-3--1-6----3-4--6-4--1-3--4-3--0-1---|

H|-0-1---------1----------------------------------------|

G|------------------------------------------------------|

D|------------------------------------------------------|

A|------------------------------------------------------|

E|------------------------------------------------------|


                Fm                      Gm   C7  
Нас в набитых трамваях болтает,
             Fm             Gsus4 G
Нас мотает одна маета,
             Bm                 Cm7   F
Нас метро то и дело глотает,
               Bm    Bm/G     C7sus4 C7
Выпуская из дымного рта

                Fm                         Gm    C7  
В шумных улицах, в белом порхании -
                 Bm        Bm/G          C7sus4 C7
Люди, ходим мы рядом с людьми
            Bm       D#7      Bm     D#7
Перемешаны наши дыханья,
     Cm7-5      F          Bm 
Перепутаны наши следы,
Bm   Bm7/G#   Bm/G     C7         Fm
  Пе-е-е-ре-е-е-е-путаны наши следы...

Проигрыш:

    Fm                  Bm     C7                  Fm  

E|------4-3--1----4-3--1-----------3-1--0----3-1--0-1-|

H|-0-1---------1---------2----0-1---------1-----------|

G|----------------------------------------------------|

D|----------------------------------------------------|

A|----------------------------------------------------|

E|----------------------------------------------------|


Из карманов мы курево тянем,
Популярные песни мычим
Задевая друг друга локтями,
Извиняемся или молчим

По Садовым, Лебяжьим и Трубным,
Каждый вроде отдельным путём,
Мы, не узнанные друг другом,
Задевая друг друга, идём,
Задевая друг друга, идём...

Окончание=Вступление

Примерный вариант боя:

 
Новые добавления
Статистика

Онлайн всего: 49
Гостей: 49
Пользователей: 0

Яндекс.Метрика

Вход на сайт