Accordium Delectus Подборка аккордов Главная Отзывы Заявка на песню Аккорды Табы Новости Видео Статьи FAQ О сайте
А   Б   В   Г   Д   Е   Ё   Ж   З   И   Й   К   Л   М   Н   О   П   Р   С   Т   У   Ф   Х   Ц   Ч   Ш   Щ   Э   Ю   Я
 
A   B   C   D   E   F   G   H   I   J   K   L   M   N   O   P   Q   R   S   T   U   V   W   Y   Z                       0...9
Разделы сайта
                   
Настройка гитары
1-я струна E  

2-я струна H  

3-я струна G  

4-я струна D  

5-я струна A  

6-я струна E  
Главная > Д > ДДТ > Это всё...

ДДТ: Это всё



Вступление (табы):


  E|-------------------------------0------------------|  

H|---3-1----------3-1----------3---3-1------3-1-0-1-|

G|--0----0-------0----0-------2------------2--------|

D|-0-------0----0-------0----0------------0---------|

A|--------------------------------------------------|

E|--------------------------------------------------|

 

 

E|----------------------------------------------2---|

H|----1-0-----------1-0-----------1-0---0------3----|

G|---0----0--------0----0--------2----2-------2-----|

D|--2-------2-----2-------2-----2------------0------|

A|-3-------------3-------------0--------------------|

E|--------------------------------------------------|

 

E|------------------------------------------|

H|------------------------------------------|

G|-----0----------0----------0----------0---|

D|---0---0------0---0------0---0------0---0-|

A|------------------------------------------|

         E|-3----------3----------3----------3-------| - 2 раза

 

E|------------------------------------------------|

H|------------------------------------------------|

G|-----------0----------0----------0----------0---|

D|---------0---0------0---0------0---0------0---0-|

A|------------------------------------------------|

E|-------3----------3----------3----------3-------|

  Побледневшие     листья   окна                   

 

E|------------------------------------------------|

H|------------------------------------------------|

G|-----------2----------2----------2----------2---|

D|---------0---0------0---0------0---0------0---0-|

A|------------------------------------------------|

E|-------2----------2----------2----------2-------|

   Зарастают   прозрачной   водой                  

 

E|------------------------------------------------|

H|------------------------------------------------|

G|-----------0----------0----------0----------0---|

D|---------2---2------2---2------2---2------2---2-|

A|------------------------------------------------|

E|-------0----------0----------0----------0-------|

    У воды нет ни смерти, ни дна...               

 

E|-----------------------------------2>3>2--------|

H|---------------------------------3--------------|

G|-----------0----------0--------2----------------|

D|---------2---2------2---2----0------------------|

A|-------3----------3-----------------------------|

E|------------------------------------------------|

   Я прощаюсь             с тобой                  


Горсть тепла после долгой зимы,
Донесём пять минут до утра
Доживём... наше море вины
Поглощает время-дыра

Припев:

E|------------------------------------------------------------------------------------|

H|------------------------------------------------------------------------------------|

G|---------0-0-0------0-0-0-------2-2-2------2-2-2------0-0-0------0-0-0------0-0-0---|

D|---------0-0-0------0-0-0-------0-0-0------0-0-0------2-2-2------2-2-2------2-2-2---|

A|--------------------------------------------------------------------------3---------|

E|-------3----------3-----------2----------3----------0----------0--------------------|

   Это всё,         что ос  -  та-а-а-а-а-нется                 после    меня,        


E|-------------------------------------------------------------------------------------------2-|

H|-------------------------------------------------------------------------------------------3-|

G|---0-0-0-----0-0-0-----0-0-0-----2-2-2-----2-2-2-----0-0-0-----0-0-0-----0-0-0-----0-0-0---2-|

D|---2-2-2-----0-0-0-----0-0-0-----0-0-0-----0-0-0-----2-2-2-----2-2-2-----2-2-2-----2-2-2---0-|

A|-3-------------------------------------------------3---------3---------3---------3-----------|

E|-----------3---------3---------2---------2---------------------------------------------------|

Э-это   всё,       что   возьму         я    с собой                                     


С нами память сидит у стола,
А в руке её пламя свечи
Ты такой хорошей была...
Посмотри на меня, не молчи!

Крики чайки на белой стене
Окольцованы чёрной луной
Нарисуй что-нибудь на окне
И шепни на прощанье рекой

Припев - 2 раза.

      Gsus2                
Две мечты, да печали стакан
        D/F#                  
Мы, воскреснув, допили до дна
      Em                  
Я не знаю, зачем тебе дан -
         C            D
Правит мною дорога-луна

И не плачь, если можешь - прости...
Жизнь не сахар, а смерть нам - не чай
Мне свою дорогу нести...
До свидания, друг, и прощай!

Припев - 2 раза.

Окончание: Gsus2  D/F#  Em  Am7 D...

Примерный вариант боя на гитаре:

 
 
Новые добавления
Статистика

Онлайн всего: 39
Гостей: 38
Пользователей: 1
Justas

Яндекс.Метрика

Вход на сайт