Accordium Delectus Подборка аккордов Главная Отзывы Заявка на песню Аккорды Табы Новости Видео Статьи FAQ О сайте
А   Б   В   Г   Д   Е   Ё   Ж   З   И   Й   К   Л   М   Н   О   П   Р   С   Т   У   Ф   Х   Ц   Ч   Ш   Щ   Э   Ю   Я
 
A   B   C   D   E   F   G   H   I   J   K   L   M   N   O   P   Q   R   S   T   U   V   W   Y   Z                       0...9
Разделы сайта
                   
Настройка гитары
1-я струна E  

2-я струна H  

3-я струна G  

4-я струна D  

5-я струна A  

6-я струна E  
Главная > Р > Ревякин Дмитрий > Провезень

Дмитрий Ревякин (Калинов мост): Провезень



Вступление (примерный вариант перебора на гитаре):

   C                             Adim7                              

E|-----------------------------------------------------------------|

H|-------1-----1---------1-----1---------4-----4---------4-----4---|

G|-----0-----0---------0-----0---------5-----5---------5-----5-----|

D|---2-----2-----2---2-----2-----2---4-----4-----4---4-----4-----4-|

A|-3---------------3---------------0---------------0---------------|

E|-----------------------------------------------------------------|

  Dm             Dsus2             G                                

E|-------1-----1---------0-----0-----------------------------------|

H|-----3-----3---------3-----3-----------0-----0---------0-----0---|

G|---2-----2-----2---2-----2-----2-----0-----0---------0-----0-----|

D|-0---------------0-----------------0-----0-----0---0-----0-----0-|

A|-----------------------------------------------------------------|

E|---------------------------------3---------------3---------------|

  Cm                               D                                

E|-------3-----3---------3-----3---------2-----2---------2-----2---|

H|-----1-----1---------1-----1---------3-----3---------3-----3-----|

G|---0-----0-----0---0-----0-----0---2-----2-----2---2-----2-----2-|

D|-1---------------1---------------0---------------0---------------|

A|-----------------------------------------------------------------|

E|-----------------------------------------------------------------|

  Dm                               G                               

E|-------1-----1---------1-----1---------3-----3---------3-----3---|

H|-----3-----3---------3-----3---------0-----0---------0-----0-----|

G|---2-----2-----2---2-----2-----2---0-----0-----0---0-----0-----0-|

D|-0---------------0-----------------------------------------------|

A|-----------------------------------------------------------------|

E|---------------------------------3---------------3---------------|


 C                    Fmaj7                E        
Руки твои несли смех морщин мятежных,
 Dm                                           E  
Крадень чужих обид по плечам висел
 C                        Fmaj7                 E       
Сохли в закат узлы, гордых аршин утешил,
Dm                                                           E           
И невдомёк копить устам сгоряча провезень

Am                               D                              
Солнцем привеченный, смех прозвенит оврагом,
Adim7                                                   E     
Ты не ходи за ним робкой надеждой просить
 Am                           D                                      
Травами венчанный, в ночь торопись его отплакать,
     Adim7                                      G  G7
Стынет перо низами в сарынь росы


И замерзает алеть поверх губы - пугать безгрешных,
Наспех прочитаны плеском страниц облака
В осень зовёт Арей гулом копыт забрезжить,
Выбелить свистами мимо ресниц прогал

Где ждут дождём меня?
Запахи смол несёт Иня
Не сберегли окрест горсти твои ложбины,
И мокнут сгорбленные спины нас простить


Быть может, липкая рубаха в гон дороже
Луковой нитки серебра у рукава
Ты бронзой пагод судишь строже
Dm                                              G        
Осколок медного ребра, лица овал

                C     Fmaj7            E             
В лучах истомы-ы-ы, ой-ёй-ёй-ёй-ёй-ёй,
              Dm                 G  
В лучах истомы, ой-ёй-ёй-ёй
               C      Fmaj7 E                       
В лучах истомы-ы-ы,  на-на-на-на-на-на,
Dm                                     G 
На-на-на-на-на-на, на-на-на-на

Окончание:

C  Adim7  Dm  G  C
 
 
Новые добавления
Статистика

Онлайн всего: 103
Гостей: 103
Пользователей: 0

Яндекс.Метрика

Вход на сайт