Accordium Delectus Подборка аккордов Главная Отзывы Заявка на песню Аккорды Табы Новости Видео Статьи FAQ О сайте
А   Б   В   Г   Д   Е   Ё   Ж   З   И   Й   К   Л   М   Н   О   П   Р   С   Т   У   Ф   Х   Ц   Ч   Ш   Щ   Э   Ю   Я
 
A   B   C   D   E   F   G   H   I   J   K   L   M   N   O   P   Q   R   S   T   U   V   W   Y   Z                       0...9
Разделы сайта
                   
Настройка гитары
1-я струна E  

2-я струна H  

3-я струна G  

4-я струна D  

5-я струна A  

6-я струна E  
Главная > Ф > Фролова Елена > Ехал всадник на коне

Елена Фролова - Ехал всадник на коне Табы, текст песни

(на стихи Булата Окуджавы)
 


На четвёртом ладу струны зажаты каподастром (инструмент для смены тональностей)

E|---4----4----4----4-----4------4------4-----4-----4-----4-----4----4------|

H|---5----5----5----5-----5------5------5-----5-----5-----5-----5----5------|

G|---6----6----6----6-----6------6------6-----6-----6-----6-----6--4--------|

D|-----------------------------------------------6-----7-----8--------------|

A|-4---------4---------4-------------4--------------------------------------|

E|------4---------4-----------4------------4--------------------------------|

                       Ехал всадник на  коне,    артиллери-и-я   орала      

 

E|--------------------------------------------------------------------------|

H|----7--------7-------7------7---------------------------------------------|

G|----6--------6-------6------6------------6-----8--------------------------|

D|----7--------7-------7------7---7---8-------------------------------------|

A|-6----------------6-------------------------------------------------------|

E|----------5--------------5------------------------------------------------|

  Танк стрелял,  душа  сгорала,  виселица на гумне                           

 

E|----4-----4-----4-----4-----4-----4-----4-----4---------------------------|

H|----7-----7-----7-----7-----7-----7-----6-----6---------------------------|

G|----7-----7-----7-----7-----4-----4-----4-----4---------------------------|

D|-------6-----------6------------------------------------------------------|

A|-------------------------4-----------4------------------------------------|

E|-7-----------7-----------------4-----------4------------------------------|

   М-м-м…                                                                    

 

E|----4-----4-------4-----4-----4-----4-----4-----4-------------------------|

H|----4-----4-------4-----4-----4-----4-----7-----7-------------------------|

G|----6-----6-------6-----6-----6-----6-----5-----5-------------------------|

D|-------4-------------4----------------------------------------------------|

A|---------------------------------6-----------6----------------------------|

E|-5-------------5-----------4-----------4----------------------------------|

          Иллюстрация  к войне                                              



Я, конечно, не помру:
Ты мне раны перевяжешь,
Слово ласковое скажешь,
Все затянется к утру...

М-м-м...
Иллюстрация к добру


Мир замешан на крови...
Это наш последний берег
Может, кто и не поверит -
Ниточку не оборви...

М-м-м...
Иллюстрация к любви

Окончание:

E|----4------4------4-----4-----4-----4-----4----4------|

H|----5------5------5-----5-----5-----5-----5----5------|

G|----6------6------6-----6-----6-----6-----6--4--------|

D|---------------------------6-----7-----8--------------|

A|-4-------------4--------------------------------------|

E|--------4------------4--------------------------------|


E|--------------------------------------------4-|

H|----7--------7-------7------7---------------4-|

G|----6--------6-------6------6------------6--5-|

D|----7--------7-------7------7---7---8-------6-|

A|-6----------------6-------------------------6-|

         E|----------5--------------5------------------4-| - 2 раза

----------------------------------------------------------------------------

E|----4------4------4-----4-|

H|----5------5------5-----5-|

G|----6------6------6-----6-|

D|--------------------------|

A|-4-------------4----------|

   E|--------4------------4----|...

 
Новые добавления
Статистика

Онлайн всего: 45
Гостей: 45
Пользователей: 0

Яндекс.Метрика

Вход на сайт