Accordium Delectus Подборка аккордов Главная Отзывы Заявка на песню Аккорды Табы Новости Видео Статьи FAQ О сайте
А   Б   В   Г   Д   Е   Ё   Ж   З   И   Й   К   Л   М   Н   О   П   Р   С   Т   У   Ф   Х   Ц   Ч   Ш   Щ   Э   Ю   Я
 
A   B   C   D   E   F   G   H   I   J   K   L   M   N   O   P   Q   R   S   T   U   V   W   Y   Z                       0...9
Разделы сайта
                   
Настройка гитары
1-я струна E  

2-я струна H  

3-я струна G  

4-я струна D  

5-я струна A  

6-я струна E  

Francesca Gagnon - Querer Аккорды и текст песни




Вступление (примерный вариант боя):

  Dm                 B-5 A7/D   Dm                 B-5 A7    

E|---1----1----1---1----0----0---1----1----1---1----0---0-|

H|---3----3----3---3----3----2---3----3----3---3----3---2-|

G|---2----2----2---2----3----0---2----2----2---2----3---0-|

D|-0----0----0---0----0----0---0----0----0---0----0-------|

A|----------------------------------------------------0---|

E|--------------------------------------------------------|

  Dm                  D7/F#  Gm       Gm7  Gm/E  A7        

E|---1----1----1---1----2--2----3----3---3----3----0--0---|

H|---3----3----3---3----1--1----3----3---3----3----2--2---|

G|---2----2----2---2----2--2----3----3---3----3----0--0---|

D|-0----0----0---0----0-----------------------------------|

A|-----------------------------------------------0--------|

E|----------------------2--2--3----3---1----0-------------|

  Dm                B-5 A7/D  

E|---1----1----1---1---0---0-|

H|---3----3----3---3---3---2-|

G|---2----2----2---2---3---0-|

D|-0----0----0---0-------0---|

A|---------------------------|

E|---------------------------|


     Dm   
Querer
          B-5 A7/D Dm 
Dentro del   corazon
         B-5 A7       Dm   
Sin pudor,    sin razon
                               D7/F#    Gm           Gm7-Gm/E A7
Con el fuego de la pasion

Querer
Sin mirar hacia atras
A traves de los ojos
      D7/F#      Gm       
Siempre y todavia mas

           B    C/B
Amar
                                Am7  Dm     
Para poder luchar
                                Gm  C
Contra el viento y volar
                        Fmaj7 B          B-5  A7
Descubrir la belle-e-eza del mar

     Dm
Querer
      B-5 A7        Dm
Y poder    compartir
            B-5 A7     Dm
Nuestra sed    de vivir
                             D7/F#           Gm             Gm7-Gm/E
El regalo que nos da el amor
         B-5 A7  Dm   B-5 A7
Es    la vida

Проигрыш=Вступление

Querer
Entre cielo y mar
Sin fuerza de gravedad
Sentimiento de libertad

Querer
Sin jamas esperar
Dar solo para dar
Siempre y todavia mas

Amar
Para poder luchar
Contra el viento y volar
Descubir la belleza del mar

Querer
Y poder compartir
Nuestra sed de vivir
El regalo que nos da el amor
B-5 A7  Dm    
Es    la vida

Проигрыш:

  B-5 A7 Dm                  Dm/C        

E|-0--0-----1----1----1---1------1---1-|

H|-3--2-----3----3----3---3------3---3-|

G|-3--0-----2----2----2---2------2---2-|

D|--------0----0----0---0----0---------|

A|-----------------------------3---3---|

E|-------------------------------------|

  ...Es     la vida                                              

  B             C/B           Am7        C  Dm        

E|---1----1----1---0----0----0---0----0----0---1----1-|

H|---3----3----3---1----1----1---1----1----1---3----3-|

G|---3----3----3---0----0----0---0----0----0---2----2-|

D|-------------------------------------------0----0---|

A|-1----1----1---1----1----1---0----0----3------------|

E|----------------------------------------------------|

 Dm/F Gm           C         Fmaj7     B     B-5     A7 

E|-1----3----3--3----0----0--0----0--0---1--1---0--0--0-|

H|-3----3----3--3----1----1--1----1--1---3--3---3--3--2-|

G|-2----3----3--3----0----0--0----2--2---3--3---3--3--0-|

D|------------------------------------------------------|

A|-----------------3----3----3---------1--------------0-|

E|-1--3----3----3---------------1-------------0---------|


Querer
Dentro del corazon
Sin pudor, sin razon
Con el fuego de la pasion
Y volar

Окончание:

  Dm                 B-5 A7/D   Dm                 B-5 A7  

E|---1----1----1---1----0----0---1----1----1---1----0---0-|

H|---3----3----3---3----3----2---3----3----3---3----3---2-|

G|---2----2----2---2----3----0---2----2----2---2----3---0-|

D|-0----0----0---0----0----0---0----0----0---0----0-------|

A|----------------------------------------------------0---|

E|--------------------------------------------------------|

  Dm                  D7/F#  Gm       Gm7  Gm/E  A7        

E|---1----1----1---1----2--2----3----3---3----3----0--0---|

H|---3----3----3---3----1--1----3----3---3----3----2--2---|

G|---2----2----2---2----2--2----3----3---3----3----0--0---|

D|-0----0----0---0----0-----------------------------------|

A|-----------------------------------------------0--------|

E|----------------------2--2--3----3---1----0-------------|

  Dm    Gm/B Gm Dm/A   B-5  A7  Dm    Gm/B Gm Dm/A   B-5  A7 Dm  

E|---1--1---3---3---1--1---0---0---1--1---3---3---1--1---0--0-1-|

H|---3--3---3---3---3--3---3---2---3--3---3---3---3--3---3--2-3-|

G|---2--2---3---3---2--2---3---0---2--2---3---3---2--2---3--0-2-|

D|-0-----------------------------0----------------------------0-|

A|--------1-------0----------0----------1-------0----------0----|

E|------------3----------0------------------3----------0--------|

 
Новые добавления
Статистика

Онлайн всего: 68
Гостей: 68
Пользователей: 0

Яндекс.Метрика

Вход на сайт