Accordium Delectus Подборка аккордов Главная Отзывы Заявка на песню Аккорды Табы Новости Видео Статьи FAQ О сайте
А   Б   В   Г   Д   Е   Ё   Ж   З   И   Й   К   Л   М   Н   О   П   Р   С   Т   У   Ф   Х   Ц   Ч   Ш   Щ   Э   Ю   Я
 
A   B   C   D   E   F   G   H   I   J   K   L   M   N   O   P   Q   R   S   T   U   V   W   Y   Z                       0...9
Разделы сайта
                   
Настройка гитары
1-я струна E  

2-я струна H  

3-я струна G  

4-я струна D  

5-я струна A  

6-я струна E  

Fred Buscaglione - Guarda Che Luna (из к/ф "Письма к Джульетте") Аккорды и текст песни




Вступление (примерный вариант):

   Em                                   H7                                  Em           

E|-----3-----3-----3-----------5-----5-----5-----------3-----3-|

H|---5-----5-----5-----5-----4-----4-----4-----4-----5-----5---|

G|-4-----4-----4-----4---4-4-----4-----4-----4---4-4-----4-----|

D|-------------------------------------------------------------|

A|-------------------------------------------------------------|

E|-------------------------------------------------------------|

Am                G                 D                   G                H7              

E|-----5-----5-----3-----3-----5-----5--3-3-3-3-3-3-2----------|

H|---5-----5-----3-----3-----7-----7----3-3-3-3-3-3-4----------|

G|-5-----5-----4-----4-----5-----5------4-4-4-4-4-4-2----------|

D|--------------------------------------5-5-5-5-5-5-4----------|

A|--------------------------------------5-5-5-5-5-5-2----------|

E|--------------------------------------3-3-3-3-3-3------------|


               Em 
Guarda che luna
                  H7  
Guarda che mare
               E7                            Am  
Da questa notte senza te dovrò restare

             H7  
Folle d'amore
             Em  
Vorrei morire
              F#                                H7   
Mentre la luna di lassù mi sta a guardare


Resta soltanto
Tutto il rimpianto
Perché ho peccato nel desiderarti tanto

           Am             F   
Ora son solo a ricordare
      Em               
E vorrei poterti dire
               Am  H7               Em   
Guarda che luna, guarda che mare!

Проигрыш: Em  Em  H7  H7  E7  E7  Am  Am  Am  Am  Am  Em  Em  F#  F#  H7  H7

Ma guarda che luna
Guarda che mare
Da questa notte senza te vorrei morire

Perché son solo a ricordare
E vorrei poterti dire
Guarda che luna, guarda che mare


                                          Am                     Em  Em7  Em/C#  Cmaj7
Guarda che luna, guarda che mare!
                     H7 Em  Am6  Em  Em6
Che  luna!
 
Новые добавления
Статистика

Онлайн всего: 69
Гостей: 68
Пользователей: 1
Justas

Яндекс.Метрика

Вход на сайт