Accordium Delectus Подборка аккордов Главная Отзывы Заявка на песню Аккорды Табы Новости Видео Статьи FAQ О сайте
А   Б   В   Г   Д   Е   Ё   Ж   З   И   Й   К   Л   М   Н   О   П   Р   С   Т   У   Ф   Х   Ц   Ч   Ш   Щ   Э   Ю   Я
 
A   B   C   D   E   F   G   H   I   J   K   L   M   N   O   P   Q   R   S   T   U   V   W   Y   Z                       0...9
Разделы сайта
                   
Настройка гитары
1-я струна E  

2-я струна H  

3-я струна G  

4-я струна D  

5-я струна A  

6-я струна E  
Главная > G > Golden Earrign > Going To The Run

Golden Earrign - Going To The Run Аккорды к песне



Вступление:

          Em               C               G                        

E|----------------------------------------------------------------|

H|-----------------0-------------1-----------------0--------------|

G|---------------0-----0-------0---0---0---------0-----0------0---|

D|-------0-----2-----2---0---2-------2---0-----0-----0------0---0-|

A|---0-2-----2-------------3-----------------2--------------------|

E|-3-------0-------------------------------3--------------3-------|

 

          Em               C               G               

E|-------------------------------------------------------|

H|-----------------0-------------1-----------------0-----|

G|---------------0-----0-------0---0---0---------0-----0-|

D|-------0-----2-----2---0---2-------2---0-----0-----0---|

A|---0-2-----2-------------3-----------------2-----------|

E|-3-------0-------------------------------3-------------|


                   Em               
I could bet on New Year's Eve
       C                 G    
He'd call me up at night
                          Em              
From the other side of the world,
            C                     D              Dsus4 D
Ed was always there alright

                 Am           G            
Ed's got the looks of a movie star,
                    D Dsus4 D       Am    
Ed's got the smile           of a prince
D                            Em                   
He rides a bike instead of a car,
C                         D        
I wanna be his friend


Dancing in the living room
With the ladies so nice
Like a child with a wisdom tooth
He's just a friend of mine,

Ed's got the rings and the colors,
Ed's got the wind in his hair,
He goes riding with the brothers,
He's got a fist in the air

Припев:

                             Em Cmaj7 D       Dsus4 D
Going to the run, run    Angel
               Cmaj7 H7 Em     
Going to the run, run  Angel
           C                              D                     
Well, heaven and hell came together that night
C                      D
Only for you this time
                 Am   Cadd9  G      
Going to the run, forever Angel

Проигрыш: Em  C  G  G - 2 раза

One summer at the festival
Holding on real tight
On the back of a Harley
He took me for a ride in the sky

Ed's got the looks of a movie star,
Ed's got the smile of a prince
He'd ride a bike instead of a car,
I'll always be his friend

Припев:

Going to the run, run Angel
Going to the run, run Angel
And his wings started to shine so bright
Like a fire in the night,
Going to the run, forever Angel

Going to the run, run Angel
Forever going to the run, run Angel
Well, heaven and hell came together that night
Only for you this time
Going to the run, forever Angel,
Going to the run, forever Angel

Примерный вариант боя:

 
Новые добавления
Наш опрос
ВИА-2016 Какой Вокально-инструментальный ансамбль вам больше всего нравится? (Финал, ноябрь-декабрь)
Всего ответов: 390
Статистика

Онлайн всего: 42
Гостей: 42
Пользователей: 0

Яндекс.Метрика

Вход на сайт