Accordium Delectus Подборка аккордов Главная Отзывы Заявка на песню Аккорды Табы Новости Видео Статьи FAQ О сайте
А   Б   В   Г   Д   Е   Ё   Ж   З   И   Й   К   Л   М   Н   О   П   Р   С   Т   У   Ф   Х   Ц   Ч   Ш   Щ   Э   Ю   Я
 
A   B   C   D   E   F   G   H   I   J   K   L   M   N   O   P   Q   R   S   T   U   V   W   Y   Z                       0...9
Разделы сайта
                   
Настройка гитары
1-я струна E  

2-я струна H  

3-я струна G  

4-я струна D  

5-я струна A  

6-я струна E  
Главная > Я > Ялла > Учкудук

ВИА Ялла - Учкудук Аккорды песни


  Em                                                                

E|-------0-----0--------------------------0-----0---------------0---|

H|-----0---0-----0-----0-----0----------0---0-----0-----0-----0---0-|

G|---0-------0-------0-----0-----0----0-------0-------0-----0-------|

D|-----------------4-----2--------------------------------2---------|

A|-----------------------------2--------------------0~2-------------|

E|-0--------------------------------0-------------------------------|

Горячее солнце,                               горячий песок,                                    

  Em                                                                 

E|-------0-----0--------------------------0-----0---------------0---|

H|-----0---0-----0-----0-----0----------0---0-----0-----0-----0---0-|

G|---0-------0-------0-----0-----0----0-------0-------0-----0-------|

D|-----------------4-----2--------------------------------2---------|

A|-----------------------------2--------------------0~2-------------|

E|-0--------------------------------0-------------------------------|

Горячие губы,                                 воды бы глоток!                                   

   C                               D                                 

E|-------0-----0---------0-----0---------2-----2---------2-----2----|

H|-----1---1-----1-----1---1-----1-----3---3-----3-----3---3-----3--|

G|---0-------0-------0-------0-------2-------2-------2-------2------|

D|-----------------2---------------0---------------0----------------|

A|-3----------------------------------------------------------------|

E|------------------------------------------------------------------|

 В горячей пустыне                           не видно следа...                                       

  Am                                                H7                 

E|-------0-----0---------0-----0---------0-----0----------------2---|

H|-----1---1-----1-----1---1-----1-----1---1-----1-----------0------|

G|---2-------2-------2-------2-------2-------2------------2---------|

D|-----------------2-----------------------------------1------------|

A|-0-------------------------------0----------------2---------------|

E|------------------------------------------------------------------|

 Скажи, караванщик,                       когда же                вода?                           

Припев:

      Em            G      
Учкудук, три колодца,
        C                       G        
Защити, защити нас от солнца!
            Am                               D      G    
Ты в пустыне спасительный круг, Учкудук!

      Em            G      
Учкудук, три колодца,
        C          D           G        
Защити, защити нас от солнца!
           Am                          D           G  
Ты в пустыне спасительный круг, Учкудук!


Друг дерева жизни, таинственный страж...
А, может быть, это лишь только мираж?
А, может быть, это усталость и бред,
И нет Учкудука, спасения нет?

Припев.

Любой в Учкудуке расскажет старик,
Как город-красавец в пустыне возник,
Как в синее небо взметнулись дома,
И как удивилась природа сама

Припев:

Учкудук, три колодца,
Пусть над ним, пусть над ним светит солнце!
Ты в пустыне спасительный круг, Учкудук!

Учкудук, три колодца,
Пусть над ним, пусть над ним светит солнце!
Ты в пустыне спасительный круг, Учкудук!

      Em            G     
Учкудук, три колодца,
                C                                        D             G        
Пусть над ним, пусть над ним, пусть над ним светит солнце!
           Am                               D      G   
Ты в пустыне спасительный круг, Учкудук!

      Em          G    
Учкудук, Учкудук...
Учкудук, Учкудук...
Учкудук, Учкудук...

Бой на гитаре (примерный вариант):

 
Новые добавления
Статистика

Онлайн всего: 56
Гостей: 56
Пользователей: 0

Яндекс.Метрика

Вход на сайт