Accordium Delectus Подборка аккордов Главная Отзывы Заявка на песню Аккорды Табы Новости Видео Статьи FAQ О сайте
А   Б   В   Г   Д   Е   Ё   Ж   З   И   Й   К   Л   М   Н   О   П   Р   С   Т   У   Ф   Х   Ц   Ч   Ш   Щ   Э   Ю   Я
 
A   B   C   D   E   F   G   H   I   J   K   L   M   N   O   P   Q   R   S   T   U   V   W   Y   Z                       0...9
Разделы сайта
                   
Настройка гитары
1-я струна E  

2-я струна H  

3-я струна G  

4-я струна D  

5-я струна A  

6-я струна E  

ГлавнаяА > Антонов Юрий > 20 лет спустя

Юрий Антонов - 20 лет спустя Правильные аккорды, табы


Вступление:


E|-5--5---------10--8----8---------------------------------0-------|

H|-6--6----8-10-8-----10---8------8--8--------8-6--------6---6-----|

G|--------------9-----------------9--9------9---7------7-------7---|

D|-0--0---------0-------------------------------0----------------7-|

A|----------------------------------------0----------0-------------|

E|--------------------------------9--9-----------------------------|

 

E|-5--5---------10--8----8-----------------------------------------|

H|-6--6----8-10-8-----10---8------8--8--------8-6------6-8-------8-|

G|--------------9-----------------9--9------9---7----7---9-----9---|

D|-0--0---------0-------------------------------0--7-----10--------|

A|----------------------------------------0------------------------|

E|--------------------------------9--9-----------------------8-----|

 

E|-8---8---0--------10--10--------------------------------9-----------|

H|-10--10--11-10-8--10--10--10-8-------11>10-8>6-5>6-8>11-10----------|

G|-10--10-----------10--10--10---10---------------------------6--7--9-|

D|--------------------------------------------------------------------|

A|-------------------------------------10----7---4---7----0-----------|

E|------------------------------------------------------------5--7--9-|


E|-13>10-5-----5------------5-----5---|

H|---------6-----6--------6---6-----6-|

G|-----------7-----7----7-------7-----|

D|-0------------------0---------------|

A|------------------------------------|

E|------------------------------------|


  Dm                               B5/D     A7/C#     Dm                     

E|-------5-----5----------5-----5----------0--------0--------5-----5--------|

H|-----6---6-----6------6---6-----6------3--------2--------6---6-----6------|

G|---7-------7--------7-------7--------3--------0--------7-------7----------|

D|-0----------------0----------------0-----------------0--------------------|

A|--------------------------------------------4-----------------------------|

E|--------------------------------------------------------------------------|

   Я прошу тебя: сумей забыть         все тревоги    дня                    

 

  Dm                                Gm7      C7      Fmaj7                   

E|-------5-----5----------5-----5----------3--------0--------0-----0--------|

H|-----6---6-----6------6---6-----6------3--------1--------1---1-----1------|

G|---7-------7--------7-------7--------3--------3--------2-------2----------|

D|-0----------------0----------------3-----------------3--------------------|

A|--------------------------------------------3-----------------------------|

E|--------------------------------------------------------------------------|

  Пусть они уйдут и, может быть,       ты поймёшь   меня                    

 

  Cm                    D               Gm       Gm7        C                

E|-------3-----3--------------2-----2----------3--------3--------0--1--3----|

H|-----4---4-----4----------3---3-----3------3--------3---------------------|

G|---5-------5------------2-------2--------3--------3---------0-------------|

D|----------------------0----------------5--------3-----------------0--2----|

A|-3--------------------------------------------------------3----3----------|

E|--------------------------------------------------------------------------|

 Всё, что я скажу, не знаешь ты     –     только ты тому вина!              

 

 Fmaj7                   B                Gm                    A7                

E|-------0-----0---------------1-----1-----------3-----3---------------0---------|

H|-----1---1-----1-----------3---3-----3-------3---3-----3-----------2---3---5---|

G|---2-------2-------------3-------3---------3-------3-------------0-------0---0-|

D|-3-----------------------------------------------------------------------------|

A|-----------------------1---------------------------------------0-------2---4---|

E|-----------------------------------------3-------------------------------------|

    Понял я, что мне нужна,       нужна одна лишь ты, лишь ты одна               



Этот день нам вспомнится не раз, 
Я его так ждал!
Как мне хорошо с тобой сейчас,
Жаль, что вечер мал...

Я прошу тебя, побудь со мной,
Ты понять меня должна!
Знаешь ты, что мне нужна,
Нужна одна лишь ты, лишь ты одна...

Припев:

           A7                    Dm7        Gm7        C7         Fmaj7      

E|----------------0---------------------5----------3----------0-----------0-|

H|--------------2----3---5------------6----------3----------1-----------1---|

G|------------0--------0---0--------5----------3----------3-----------2-----|

D|--------------------------------0----------3----------------------3-------|

A|----------0--------2---3------------------------------3-------------------|

E|--------------------------------------------------------------------------|

лишь ты одна…        Хочу, чтоб годам вопреки, так же были мы близки        

 

        B           D#                                 A7                                  

E|------------1-----------3-----3----------3-----3------------0-----0--------------------|

H|----------3-----------4---4-----4------4---4-----4--------2---2-----2--------2-3---5---|

G|--------3-----------3-------3--------3-------3----------0-------0----------0-----0---0-|

D|-------------------------------------------------------------------------2-------------|

A|------1-----------6----------------6------------------0----------------0-------2---4---|

E|---------------------------------------------------------------------------------------|

Так же были мы близки                 двадцать лет спустя…                               


Проигрыш=Вступление

Не мечтал о счастье я таком, 
Я о нём не знал
Даже целый век вдвоём с тобой 
Мне наверно мал

Благодарен я судьбе своей
За любовь, что нам дана
Знаю, будешь мне нужна
Всегда одна лишь ты, лишь ты одна...

Припев.

Окончание:

№1

E|-10-12-13--------12--------10---------------------------------------|

H|-----------13-12-----12-10----10-9--12-13-12-10--12-10-----10-------|

G|-------------------------------------------------------12-----12-10-|

D|-0------------------------------------------------------------------|

A|--------------------------------------------------------------------|

E|--------------------------------------------------------------------|

№2

E|-----------0---------------------------------|

H|-3-5-6-----------3---------------------------|

G|-------5-4---4-2---2-1-4-5-4-2--4-2-0--2-0---|

D|-0-----------------------------------------3-|

A|---------3-------2-------0-------------------|

E|--------------------------------3------1-----|

 
Новые добавления
Статистика

Онлайн всего: 16
Гостей: 16
Пользователей: 0

Яндекс.Метрика

Вход на сайт