Accordium Delectus Подборка аккордов Главная Отзывы Заявка на песню Аккорды Табы Новости Видео Статьи FAQ О сайте
А   Б   В   Г   Д   Е   Ё   Ж   З   И   Й   К   Л   М   Н   О   П   Р   С   Т   У   Ф   Х   Ц   Ч   Ш   Щ   Э   Ю   Я
 
A   B   C   D   E   F   G   H   I   J   K   L   M   N   O   P   Q   R   S   T   U   V   W   Y   Z                       0...9
Разделы сайта
                   
Настройка гитары
1-я струна E  

2-я струна H  

3-я струна G  

4-я струна D  

5-я струна A  

6-я струна E  

Главная > Песни из кино - и мультфильмов > Не забывай

Юрий Антонов и группа Аракс - Не забывай (из к/ф "Берегите женщин") Текст песни с аккордами

По заказу Александра


Вступление:


   V  V ^  V   V ^ V  V ^  V   V       V  V ^  V   V ^ V  V   V ^  

E|-1--1-1--0>1-1-0-1--1-1--0>1-1>0-----3--3-3--3---3-3-3--3---3-3-|

H|-3--3-3--3---3-3-3--3-3--3---3-------3--3-3--3---3-3-3--3---3-3-|

G|-2--2-2--2---2-2-2--2-2--2---2-------3--3-3--3---3-3-3--3---3-3-|

D|-0--0-0--0---0-0-0--0-0--0---0-------5--5-5-3>5-5-3-5-3>5-5-3-|

A|----------------------------------------------------------------|

         E|----------------------------------------------------------------| - 2 раза

 

   V  V ^  V   V ^ V  V ^  V   V       V  V ^  V   V ^ V  V   V V  

E|-1--1-1--0>1-1-0-1--1-1--0>1-1>0-----3--3-3--3---3-3-3--3---3-5-|

H|-3--3-3--3---3-3-3--3-3--3---3-------3--3-3--3---3-3-3--3---3-5-|

G|-2--2-2--2---2-2-2--2-2--2---2-------3--3-3--3---3-3-3--3---3-5-|

D|-0--0-0--0---0-0-0--0-0--0---0-------5--5-5-3>5-5-3-5-3>5-5-7-|

A|----------------------------------------------------------------|

         E|----------------------------------------------------------------| - 2 раза

> - удар сверху

^ - удар снизу

            Dm                                    Dm-Dm/C
Если любовь не сбудется,
  B                       F         
Ты поступай, как хочется,
Gm                 Dm   
И никому на свете
           B         G/H    C  A7/C#
Грусти не выдавай

Новая встреча - лучшее
Средство от одиночества,
Но и о том, что было,
  B          C(3)   F   
Помни, не забывай!

Припев:

              Gm                   Dm     
Мечта сбывается и не сбывается,
                 Gm            C             Am Am7 Dm  
Любовь приходит к нам, порой, не та-а-а-а-а...
             Gm                Dm      
Но всё хорошее не забывается,
           Gm           Am7        Dm
А всё хорошее  -  и есть мечта!

Проигрыш


Пусть о любви нечаянной
Кто-то сказать осмелится
Если поверишь в это -
Сердце не закрывай!

В сердце необитаемом
Снова любовь поселится,
Но и о том, что было,
Помни, не забывай!

Припев.

Проигрыш: Dm  Dm  B-C(3)-F   Gm  Dm  B-G/H-C-A7/C# - 2 раза

Окончание


 
Новые добавления
Статистика

Онлайн всего: 123
Гостей: 123
Пользователей: 0

Яндекс.Метрика

Вход на сайт