Accordium Delectus Подборка аккордов Главная Отзывы Заявка на песню Аккорды Табы Новости Видео Статьи FAQ О сайте
А   Б   В   Г   Д   Е   Ё   Ж   З   И   Й   К   Л   М   Н   О   П   Р   С   Т   У   Ф   Х   Ц   Ч   Ш   Щ   Э   Ю   Я
 
A   B   C   D   E   F   G   H   I   J   K   L   M   N   O   P   Q   R   S   T   U   V   W   Y   Z                       0...9
Разделы сайта
                   
Настройка гитары
1-я струна E  

2-я струна H  

3-я струна G  

4-я струна D  

5-я струна A  

6-я струна E  
Главная > Д > Дубы-Колдуны > Толстый Карлсон

ВИА Дубы-Колдуны: Толстый Карлсон


Смотреть в тональности C (до мажор)

Вступление:

E

E|-0--0--0------0-0--0------|

H|-0--------0-2---------0-2-|

G|-1------------------------|

D|-2------------------------|

A|-2------------------------|

         E|-0------------------------| - 2 раза


E                          G#m         
Есть герой в мире сказочном,
C#m                   G#m           
Он смешной и загадочный
      C#m                   F#m                 
На крыше дом, ну а в нём живет он -
                    H           H7        G#m7  H/F#
Толстый Карлсон

Малыши просят Карлсона:
"Рассмеши нас, пожалуйста!
Нам скучно жить без тебя, чудак наш,
Толстый Карлсон!"

Припев:

  E                                               G#m              H                
Вот мы слышим, снова слышим мотора стук, весёлый стук -
E                                               G#m                             H                
Это с крыши, прямо с крыши спешит к нам друг, наш чудесный друг
C#m                              G#m                      
Поднимает настроение, дразнит, тормошит,
A                                   H                      
Ест клубничное варенье и ребят смешит,
      C#m                       A H
Толстый Карлсон!


Хоть и мы люди взрослые,
Вечно ходим с вопросами:
Ну как тут быть, если нет тебя здесь,
Толстый Карлсон?

Малыши просят Карлсона:
"Рассмеши нас, пожалуйста,
И к нам в окно залети, и спой нам,
Толстый Карлсон!

Припев:

И пропеллер свой заводит
Смешной чудак, смешной чудак,
И к ребятам в окна входит
Ну просто так, ну просто так!

Это значит - сказка может доброй явью стать,
Если Карлсон нам поможет в детство вновь попасть,
Толстый Карлсон!

Проигрыш:

E

E|-0--0--0------0-0--0------|

H|-0--------0-2---------0-2-|

G|-1------------------------|

D|-2------------------------|

A|-2------------------------|

         E|-0------------------------| - 2 раза

    E           G#m        C#m          G#m      

E|:----------9-7-9-7--7-----9--9--9--7---7------|

H|:-5--5--5----------------------------9---9--9-|

G|:---------------------------------------------|

D|:---------------------------------------------|

A|:---------------------------------------------|

E|:---------------------------------------------|

  C#m          F#m          H   H7     G#m7 H/F# 

E|-9--9--9--7---7-----------7--7-9--11---------:|

H|------------9---9-7--7-----------------------:|

G|---------------------------------------------:|

D|---------------------------------------------:|

A|---------------------------------------------:|

         E|---------------------------------------------:| - 2 раза


Припев:

Вот мы слышим, снова слышим
Мотора стук, весёлый стук -
Это с крыши, прямо с крыши
Спешит к нам друг, наш чудесный друг!

Поднимает настроенье, дразнит, тормошит,
Ест клубничное варенье и ребят смешит,
Жирный Карлсон!

Окончание:

E

E|-0--0--0------0-0--0------|          E|-0-|

H|-0--------0-2---------0-2-|          H|-0-|

G|-1------------------------|          G|-1-|

D|-2------------------------|          D|-2-|

A|-2------------------------|          A|-2-|

E|-0------------------------| - 2 раза E|-0-|

Бой на гитаре (примерный вариант):

 
 
Новые добавления
Статистика

Онлайн всего: 96
Гостей: 96
Пользователей: 0

Яндекс.Метрика

Вход на сайт