Accordium Delectus Подборка аккордов Главная Отзывы Заявка на песню Аккорды Табы Новости Видео Статьи FAQ О сайте
А   Б   В   Г   Д   Е   Ё   Ж   З   И   Й   К   Л   М   Н   О   П   Р   С   Т   У   Ф   Х   Ц   Ч   Ш   Щ   Э   Ю   Я
 
A   B   C   D   E   F   G   H   I   J   K   L   M   N   O   P   Q   R   S   T   U   V   W   Y   Z                       0...9
Разделы сайта
                   
Настройка гитары
1-я струна E  

2-я струна H  

3-я струна G  

4-я струна D  

5-я струна A  

6-я струна E  
Главная > Л > Ленинград > Отпускная

Ленинград - Отпускная Аккорды и текст песни




Вступление (табы; звёздочками обозначена "заглушка"):

  Em7                             Hm7        Hm7   A    G          

E|-------3------3--*--3----3--*--3--------------------------------|

H|-----3--------3--*--3----3--*--3---3--*--3----3----2----0--*--0-|

G|---4----------4--*--4----4--*--4---2--*--2----2----2----0--*--0-|

D|-2----------2----------2-----------4--*--4----4----2----0--*--0-|

A|---------------------------------2----------2----0--------------|

E|------------------------------------------------------3---------|

               Пиво  свежее     из бочки,           у-----у-----у,

      Em7        Hm7        Hm7   A    G                      

E|-------3--*--3-------------------------------------------|

H|-------3--*--3----3--*--3----3----2----0--*--0-----------|

G|-------4--*--4----2--*--2----2----2----0--*--0-----------|

D|-----2------------4--*--4----4----2----0--*--0-----------|

A|----------------2----------2----0------------------------|

E|-------------------------------------3-------------------|

 Притащил сосед Илья,                у------у-----у                                   

      Em7        Hm7        Hm7  A    G                     

E|-------3--*--3-------------------------------------------|

H|-------3--*--3----3--*--3----3----2----0--*--0-----------|

G|-------4--*--4----2--*--2----2----2----0--*--0-----------|

D|-----2------------4--*--4----4----2----0--*--0-----------|

A|----------------2----------2----0------------------------|

E|-------------------------------------3-------------------|

 Разбросаю    я    носочки,           у------у-----у,                                  

        F#7             Hm7                                                                        

E|---------------------------------------------------------|

H|------0--*--0----2--*--2--2------------------------------|

G|------0--*--0----3--*--3--3------------------------------|

D|------0--*--0----2--*--2--2------------------------------|

A|---------------------------------------------------------|

E|----3----------2----------2------------------------------|

По периметру  жилья                                                                         

Припев:


    Hm7       Hm7/A       Dmaj7         G                                                   

E|------------------------2--------------------------------|

H|------3--------3--------2--------0--------0--------------|

G|------2--------2------2---2------0--------0--------------|

D|----4---4----4---4--0----------0---0----0---0------------|

A|--2--------0---------------------------------------------|

E|-----------------------------3--------3------------------|

Ах уе,        ах уе,      ах уехала  жена,                                               

  Em7             F#m         Hm                                                              

E|-----3---------------------7-----------------------------|

H|-----3----------2--------7-------------------------------|

G|---4---4--------2------7---------------------------------|

D|-2------------2---2--------------------------------------|

A|---------------------------------------------------------|

E|------------2--------7--------7--------------------------|


   Заи,  заи,      заинька моя                                                               

Проигрыш: Hm  A(5)  G(3)  F#m  Em  F#  Hm

Em                        Hm    Hm  A(5)  G(3)    
Пиво свежее из бочки, у-у-у-у-у-у,
           Em               Hm Hm A(5)  G(3)
Притащил сосед Илья,   у-у-у-у-у-у
          Em        Hm    Hm A(5)  G(3)
Разбросаю я носочки, у-у-у-у-у-у,
                            F#
По периметру жилья

Припев.

Проигрыш: Hm  A(5)  G(3)  F#m  Em  F#  Hm - 2 раза

Таня с Леной, две кассирши,
Забегут на огонёк
Да, у Лены попа ширше,
Сиськами сильна Танёк

Припев.

Проигрыш: Hm  A(5)  G(3)  F#m  Em  F#  Hm - 2 раза

Я сижу, по ней скучаю,
И кассирши тоже тут,
Запивают водку чаем
И тоску мою сосут

Припев.

Окончание: Hm  A(5)  G(3)  F#m  Em  F#  Hm

Бой на гитаре (примерный вариант):

 
Новые добавления
Статистика

Онлайн всего: 35
Гостей: 35
Пользователей: 0

Яндекс.Метрика

Вход на сайт