Accordium Delectus Подборка аккордов Главная Отзывы Заявка на песню Аккорды Табы Новости Видео Статьи FAQ О сайте
А   Б   В   Г   Д   Е   Ё   Ж   З   И   Й   К   Л   М   Н   О   П   Р   С   Т   У   Ф   Х   Ц   Ч   Ш   Щ   Э   Ю   Я
 
A   B   C   D   E   F   G   H   I   J   K   L   M   N   O   P   Q   R   S   T   U   V   W   Y   Z                       0...9
Разделы сайта
                   
Настройка гитары
1-я струна E  

2-я струна H  

3-я струна G  

4-я струна D  

5-я струна A  

6-я струна E  
Главная > Х > Хамитова Лилия > Мэхэббэт шушыдыр

Лилия Хамитова - Мэхэббэт шушыдыр Аккорды и текст песни



В оригинале на полтона выше (Fm)


Вступление:

  H7    Em             Am              D     Hm     C  

E|---------------------------------5------------------|

H|-8--7--5-5-7-8---------------------8-7--7------7--5-|

G|------------------5-4-2-2-4-5-------------9-7-------|

D|----------------------------------------------------|

A|----------------------------------------------------|

E|----------------------------------------------------|

   E    Am              C              D     Hm    Em  

E|---------------------------------5------------------|

H|-5--3-------------8-7-5-7-8-8------8-7--7------7--5-|

G|-------5-4-2-2----------------------------9-7-------|

D|----------------------------------------------------|

A|----------------------------------------------------|

         E|----------------------------------------------------| - 2 раза


          Em             H7
Мин сиңа карыйм да,
         Em            Am
Елларны саныйм да,
         Em        Am            H7 
Гомернең узганын аңлыймын

Тик яшьлек узмаган,
Узмаган ул заман,
Диеп мин үземне алдыймын

Припев:

         Em                
Күңелләр табышты,
         Am                
Күңелләр кавышты,
          D          Hm          C  
Күңелләр мәңгегә кушылыр

  E         Am                 
Син - минем кадерлем,
            C               
Мин синең багерең,
          D            Hm           Em 
Мәхәббәт шушыдыр, шушыдыр

Күңелләр табышты,
Күңелләр кавышты,
Күңелләр мәңгегә кушылыр

Син - минем кадерлем,
Мин синең багерең,
          D            Hm            Am 
Мәхәббәт шушыдыр, шушыдыр

Проигрыш:

  Am          C          D  Hm     Em  

E|------------------------------------|

H|-------5--------5-8----7-5------7-5-|

G|-2-4-5------5-7------------7--4-----|

D|------------------------------------|

A|------------------------------------|

E|------------------------------------|


Без яшьне тоймадык,
Яратып туймадык,
Хисләрне тыймадык без бергә

Сөюдән исердек,
Барсын да кичердек,
Без бергә, без бергә, без бергә.

Припев:

Күңелләр табышты,
Күңелләр кавышты,
Күңелләр мәңгегә кушылыр

Син - минем кадерлем,
Мин синең багерең,
Мәхәббәт шушыдыр, шушыдыр

Күңелләр табышты,
Күңелләр кавышты,
Күңелләр мәңгегә кушылыр

Син - минем кадерлем,
Мин синең багерең,
          D           Hm             Em  
Мәхәббәт шушыдыр, шушыдыр

Проигрыш=Вступление (1 раз)

Бер яндым, бер туңдым,
Мин сиңа омтылдым,
Тик сиңа тартылам буген дә

Нәкь кояш кебек син,
Елмаеп көлеп син
Балкыйсың гомерем күгендә

Припев:

Күңелләр табышты,
Күңелләр кавышты,
Күңелләр мәңгегә кушылыр

Син - минем кадерлем,
Мин синең багерең,
Мәхәббәт шушыдыр, шушыдыр

Күңелләр табышты,
Күңелләр кавышты,
Күңелләр мәңгегә кушылыр

Син - минем кадерлем,
Мин синең багерең,
          D            Hm            Em  
Мәхәббәт шушыдыр, шушыдыр

Проигрыш:

      Em    H7       Em    Am       Em    Am      H7  

E|---------------------------------------------------|

H|-------------------------------3-------------------|

G|-----------2------2-4-2---5------5-4-2---2---4-2---|

D|-2-4-5-4-2------5-------5--------------5---------4-|

A|---------------------------------------------------|

E|---------------------------------------------------|

      Em    H7       Em    Am       Em    Am      H7  

E|---------------------------------------------------|

H|-------------------------------3-------------3-----|

G|-----------2------2-4-2---5------5-4-2---2-----5-4-|

D|-2-4-5-4-2------5-------5--------------5-----------|

A|---------------------------------------------------|

E|---------------------------------------------------|


Припев.

Бой на гитаре (примерные варианты):


 
Новые добавления
Статистика

Онлайн всего: 67
Гостей: 67
Пользователей: 0

Яндекс.Метрика

Вход на сайт