Accordium Delectus Подборка аккордов Главная Отзывы Заявка на песню Аккорды Табы Новости Видео Статьи FAQ О сайте
А   Б   В   Г   Д   Е   Ё   Ж   З   И   Й   К   Л   М   Н   О   П   Р   С   Т   У   Ф   Х   Ц   Ч   Ш   Щ   Э   Ю   Я
 
A   B   C   D   E   F   G   H   I   J   K   L   M   N   O   P   Q   R   S   T   U   V   W   Y   Z                       0...9
Разделы сайта
                   
Настройка гитары
1-я струна E  

2-я струна H  

3-я струна G  

4-я струна D  

5-я струна A  

6-я струна E  

Главная > Л > Любэ > Берёзы

Любэ - Берёзы Текст песни с аккордами


Тональность Am

Вступление:

E|--------0-------------0-------------0-------|

H|-0--2-3---3-2-0---2-3---3-2-0---2-3---3-2-0-|

G|--------------------------------------------|

D|--------------------------------------------|

A|-2------------------------------------------|

E|--------------------------------------------|


              Hm               G       A          D    Hm  
Отчего так в России берёзы шумят,
                            G            A         D       H7
Отчего, белоствольные, всё понимают?
               Em             F#                        Gmaj7    Em
У дорог, прислонившись по ветру, стоят,
         Em          F#          Hm  
И листву так печально кидают

Я пойду по дороге, простору я рад,
Может это лишь всё, что я в жизни узнаю
Отчего так печальные листья летят,
Под рубахою душу ласкают?

Припев:

H7    Em         A           D        Hm 
А на сердце опять горячо-горячо,
    Em          F#           Hm  
И опять, и опять без ответа
H7    Em            A         D            Hm 
А листочек с берёзки упал на плечо,
         Em         F#        Hm    
Он как я, оторвался от веток

Проигрыш:

E|--------0-------------0-------------0-------|

H|-0--2-3---3-2-0---2-3---3-2-0---2-3---3-2-0-|

G|--------------------------------------------|

D|--------------------------------------------|

A|-2------------------------------------------|

E|--------------------------------------------|


Посидим на дорожку, родная, с тобой,
Ты пойми, я вернусь, не печалься, не стоит
И старуха махнёт на прощанье рукой,
И за мною калитку закроет

Отчего так в России берёзы шумят,
Отчего хорошо так гармошка играет?
Пальцы ветром по кнопочкам враз пролетят,
А последняя, эх, западает...

Припев.

Окончание:

E|--------0-------------0-------------0-------|

H|-0--2-3---3-2-0---2-3---3-2-0---2-3---3-2-0-|

G|--------------------------------------------|

D|--------------------------------------------|

A|-2------------------------------------------|

E|--------------------------------------------|

 
Новые добавления
Статистика

Онлайн всего: 32
Гостей: 32
Пользователей: 0

Яндекс.Метрика

Вход на сайт