Accordium Delectus Подборка аккордов Главная Отзывы Заявка на песню Аккорды Табы Новости Видео Статьи FAQ О сайте
А   Б   В   Г   Д   Е   Ё   Ж   З   И   Й   К   Л   М   Н   О   П   Р   С   Т   У   Ф   Х   Ц   Ч   Ш   Щ   Э   Ю   Я
 
A   B   C   D   E   F   G   H   I   J   K   L   M   N   O   P   Q   R   S   T   U   V   W   Y   Z                       0...9
Разделы сайта
                   
Настройка гитары
1-я струна E  

2-я струна H  

3-я струна G  

4-я струна D  

5-я струна A  

6-я струна E  
Главная > М > Мифы > Последний трамвай

Мифы - Последний трамвай Аккорды и текст песни




Вступление:

   Dm                  Gm               Dm              Gm                    

E|--------------------------------------------------------------------------|

H|-10---------------10------------------10----------------------------------|

G|-------12-10---------12-----10-12-10------10-------------10--10--10----10-|

D|-------------12------------------------------12----10-12------------------|

A|--------------------------------------------------------------------------|

         E|--------------------------------------------------------------------------| - 3 раза

 

   Dm                  Gm               Dm              Gm        Am7  Dm     

E|--------------------------------------------------------------------------|

H|-10---------------10------------------10----------------------------------|

G|-------12-10---------12-----10-12-10------10-------------10--10--12-------|

D|-------------12------------------------------12----10-12---------------12-|

A|--------------------------------------------------------------------------|

E|--------------------------------------------------------------------------|


Dm             Gm                       
Опять на улице дождь, 
Dm                        Gm                   
За окном непроглядная ночь
Dm                  Gm                        
Опять не уснуть, так что ж,
Dm                   Gm                    
Докурю сигарету и прочь

Проигрыш: Dm  Gm - 2 раза

Я выйду в полночь на безлюдный проспект 
И растворюсь в тишине дворов
Кого-то встречу, а, быть может, и нет 
Dm                          Gm            C        
В тумане улиц, запутанных снов

Припев:

F                     B                        
Я сяду в последний трамвай 
    Dm                   Gm           
И поеду туда, где горят фонари,
      F                        C                 Dm  Gm C
Туда, где всю ночь играют огни

Я сяду в последний трамвай 
И поеду туда, где горят фонари, 
           F                       C                 Dm  Gm Am7
Туда, где всю ночь играют огни

Проигрыш: Dm  Gm - 3 раза Dm  Gm Am7 Dm

Бросает ветер капли дождя
На стены цвета прошлогодней листвы
Никто не ждёт наступления дня, 
А я устал видеть серые сны

Припев.

Проигрыш: 

Dm  Gm - 3 раза Dm  Gm  C     F  B  Dm  Gm  F  C  Dm  Gm C    F  B  Dm  Gm  F  C  Dm  Gm Am7 Dm

   Dm                  Gm               Dm              Gm                    

E|--------------------------------------------------------------------------|

H|-10---------------10------------------10----------------------------------|

G|-------12-10---------12-----10-12-10------10-------------10--10--10----10-|

D|-------------12------------------------------12----10-12------------------|

A|--------------------------------------------------------------------------|

         E|--------------------------------------------------------------------------| - 2 раза


Опять на улице дождь, 
За окном непроглядная ночь
Опять не уснуть, так что ж, 
Докурю сигарету и прочь...

Проигрыш: Dm  Gm - 8 раз

Переход в тональность Fm

Припев:

D# G#                  C#                            
Я сяду в последний трамвай 
     Fm                   Bm             
И поеду туда, где горят фонари,
       G#                     D#                Fm  Bm D#
Туда, где всю ночь играют огни

Я сяду в последний трамвай 
И поеду туда, где горят фонари, 
              G#                     D#                Fm   C  C+5 Fm
Туда, где всю ночь играют огни

Примерный вариант боя на гитаре:

 
Новые добавления
Статистика

Онлайн всего: 86
Гостей: 86
Пользователей: 0

Яндекс.Метрика

Вход на сайт