Accordium Delectus Подборка аккордов Главная Отзывы Заявка на песню Аккорды Табы Новости Видео Статьи FAQ О сайте
А   Б   В   Г   Д   Е   Ё   Ж   З   И   Й   К   Л   М   Н   О   П   Р   С   Т   У   Ф   Х   Ц   Ч   Ш   Щ   Э   Ю   Я
 
A   B   C   D   E   F   G   H   I   J   K   L   M   N   O   P   Q   R   S   T   U   V   W   Y   Z                       0...9
Разделы сайта
                   
Настройка гитары
1-я струна E  

2-я струна H  

3-я струна G  

4-я струна D  

5-я струна A  

6-я струна E  
Главная > Н > Ночные снайперы > Разбуди меня

Ночные снайперы: Разбуди меня



В оригинале на полтора тона выше (Cm).

Можно проиграть этими же аккордами, поставив каподастр на 3-ем ладу

Вступление:

Am                           Dm             F        E          

E|-------------------------------------------------------------|

H|-------1--1-----------1--1-----------3--3-----------3--3>5---|

G|-----------------------------------------------------------4-|

D|-2--2--------0--2--2--------2--3--3--------3--3--3-----------|

A|-------------------------------------------------------------|

E|-------------------------------------------------------------|


 Am            C             Dm              F        E         

E|-------------------------------------------------------------|

H|-------1--1-----------1--1-----------3--3-----------3--3>5---|

G|-----------------------------------------------------------4-|

D|-2--2--------0--2--2--------2--3--3--------3--3--3-----------|

A|-------------------------------------------------------------|

E|-------------------------------------------------------------|


        Am                                                  E
Разбуди меня, искупай в самой чистой воде
                                             Dm
Глаза и ладони, нет лучше нигде,
                                             C
И качается мост между мной и тобой...

Разбуди меня поцелуем полыни и звёзд!
Я парю в этом танце, пленительно в рост,
И взрывается мост между мной и тобой

Припев:

Am                        
Навзничь упавшие,
Насмерть пропавшие...
Dm                       
Нет стыда у любви,
  F                     E
Запретов не может быть!

Am                             
Парим друг над другом мы,
C                
Кружим самолётами -
Dm                                C                      
Этим эфиром только и можно дышать,
 Dm                                              E    
В этих движениях только и стоит жить!


Разбуди меня... Не искала, но всё же нашла!
Дышу на свободе, тоска умерла
И не стоит того, чтобы долго о ней

Разбуди меня, "завтра" нас не оставит в живых,
Наше время - уже одно на двоих,
И горят фонари, и свободен тоннель...

Припев.

Разбуди меня...
           Am        Am7
Разбуди меня...
                  F         Am   E
Разбуди меня...

Проигрыш:

Am                           Dm             F        E          

E|-------------------------------------------------------------|

H|-------1--1-----------1--1-----------3--3-----------3--3>5---|

G|-----------------------------------------------------------4-|

D|-2--2--------0--2--2--------2--3--3--------3--3--3-----------|

A|-------------------------------------------------------------|

E|-------------------------------------------------------------|


Припев.

Разбуди меня!

Бой на гитаре (примерный вариант):

 
 
Новые добавления
Статистика

Онлайн всего: 103
Гостей: 103
Пользователей: 0

Яндекс.Метрика

Вход на сайт