Accordium Delectus Подборка аккордов Главная Отзывы Заявка на песню Аккорды Табы Новости Видео Статьи FAQ О сайте
А   Б   В   Г   Д   Е   Ё   Ж   З   И   Й   К   Л   М   Н   О   П   Р   С   Т   У   Ф   Х   Ц   Ч   Ш   Щ   Э   Ю   Я
 
A   B   C   D   E   F   G   H   I   J   K   L   M   N   O   P   Q   R   S   T   U   V   W   Y   Z                       0...9
Разделы сайта
                   
Настройка гитары
1-я струна E  

2-я струна H  

3-я струна G  

4-я струна D  

5-я струна A  

6-я струна E  

Главная > Г > Газманов Олег > Офицеры

Олег Газманов - Офицеры Текст, аккорды, табы



Вступление:

E|-10--8---6-5-----0--------6-----5---3-------3------6-----5-----------------------1------1-|

H|-10------------6---6------3---3---3-------3---3----5---5-----6-6-----5---3-----3---3----3-|

G|-10----7-----7-------7----3-3-----------3----------6-6-----6-------6---------2-------2--2-|

D|-0---------0--------------0-----------5------------5-------------5-----5---0------------0-|

A|---------------------------------------------------0-----------0--------------------------|

E|------------------------------------------------------------------------------------------|


                        Dm                          D              
Господа офицеры, по натянутым нервам
                                 Gm                 C#dim7   A7     
Я аккордами веры эту песню пою
                                     Dm  B                    F            
Тем, кто бросив карьеру, живота не жалея
 Gm                          Dm            A7     Dm    
Свою грудь подставляет за Россию свою

Тем, кто выжил в Афгане, свою честь не изгадив,
Кто карьеры не делал от солдатских кровей,
Я пою офицерам. матерей пожалевшим,
Возвратив им обратно живых сыновей

Припев:

                Gm           A7               
Офицеры, офицеры, 
                   Dm     Dm/C      B      B/A      
Ваше сердце под прицелом
                                      Gm          A7            Dm   Dm/E Dm/F Dm    
За Россию и свободу до конца

                        Gm           A7                       
Офицеры, россияне, 
                   Dm  Dm/C  B   B/A  
Пусть свобода  воссияет,
                Gm         A7                   Dm      
Заставляя в унисон звучать сердца


Господа офицеры, как сберечь вашу веру?
На разрытых могилах ваши души хрипят
Что ж мы, братцы, наделали, не смогли уберечь их,
И теперь они вечно в глаза нам глядят

Вновь уходят ребята, растворяясь в закатах...
Позвала их Россия, как бывало не раз
И опять вы уходите... Может, прямо на небо,
И откуда-то сверху прощаете нас
 
                                                         Gm       A7                                
Так куда ж вы уходите? 
                                 Dm Dm/C B
Может, прямо на небо
                        Dm           A7    Dm      
И откуда-то сверху прощаете нас

Припев.

Проигрыш:  Gm  A7  Dm Dm/C B B/A   Gm  A7  Dm Dm/E Dm/F D   Gm  A7  Dm Dm/C B B/A   Gm  A7  Dm  Dm

Припев.

Окончание:

E|-10--8---6-5-----0--------6-----5---3-------3------6-----5-----------------------1------1-|

H|-10------------6---6------3---3---3-------3---3----5---5-----6-6-----5---3-----3---3----3-|

G|-10----7-----7-------7----3-3-----------3----------6-6-----6-------6---------2-------2--2-|

D|-0---------0--------------0-----------5------------5-------------5-----5---0------------0-|

A|---------------------------------------------------0-----------0--------------------------|

E|------------------------------------------------------------------------------------------|

 
Новые добавления
Статистика

Онлайн всего: 47
Гостей: 47
Пользователей: 0

Яндекс.Метрика

Вход на сайт