Accordium Delectus Подборка аккордов Главная Отзывы Заявка на песню Аккорды Табы Новости Видео Статьи FAQ О сайте
А   Б   В   Г   Д   Е   Ё   Ж   З   И   Й   К   Л   М   Н   О   П   Р   С   Т   У   Ф   Х   Ц   Ч   Ш   Щ   Э   Ю   Я
 
A   B   C   D   E   F   G   H   I   J   K   L   M   N   O   P   Q   R   S   T   U   V   W   Y   Z                       0...9
Разделы сайта
                   
Настройка гитары
1-я струна E  

2-я струна H  

3-я струна G  

4-я струна D  

5-я струна A  

6-я струна E  

Главная > Щ > Щеглов Олег > Я попрошу, мадам...

Олег Щеглов - Я попрошу, мадам... Текст песни с аккордами


Вступление(примерный вариант):


            Em              Em/G              Am              Am/G                 

E|-----------------0----------------0----------------0----------------0-------|

H|-------------0-------0--------0-------0--------1-------1--------1-------1---|

G|-----------0---0---0---0----0---0---0---0----2---2---2---2----2---2---2---2-|

D|----------------------------------------------------------------------------|

A|-------------------------------------------0--------------------------------|

E|---------0----------------3---------------------------------3---------------|

 

E|---0-2-2>3-----------2—-2>3---2---0-------------------------------------0-|  

H|-0------------------------------------3----3-------1----------------3-----|  

       G|----------------------------------------------------------------2---------| - соло  

 

 

   D               D/C               G                E                       

E|---------2----------------2----------------1----------------0-------------|

H|-----3-------3--------3-------3--------0-------0--------0-------0---------|

G|---2---2---2---2----2---2---2---2----0---0---0---0----1---1---1---1-------|

D|-0------------------------------------------------------------------------|

A|------------------3-------------------------------------------------------|

E|-----------------------------------3----------------0---------------------|

 

E|-2-----------0----2---0---------------------------------------------------|

H|--------------------------3---1----0------------------------3---0---------|

G|--------------------------------------------------------------------------|

       D|--------------------------------------------------------2-----------------| - соло

 

 

  Am               H7               Em                                       

E|---------0----------------2----------------0------------------------------|

H|-----1-------1--------0-------0--------0-------0--------------------------|

G|---2---2---2---2----2---2---2---2----0---0---0---0------------------------|

D|--------------------------------------------------------------------------|

A|-0----------------2-------------------------------------------------------|

E|-----------------------------------0--------------------------------------|

 

E|---------------------------------------------------12---------------------|

H|-1------------------------------------------------------------------------|

G|-----------------------------------2--------------------------------------|

D|-------------2----1---1---------1-----------------------------------------|

       A|------------------------------4-------------------------------------------| - соло



           Em                                   Am   
Я попрошу, мадам, позвольте Вашу руку,
                    H7                   Em   H7
Скажите: "Да", и подарите шанс
      E                                 Am  
Попробовать развеять Вашу скуку
      D                               G    
Под этот ослепительный романс

           C                   E              Am     
Я не хочу сказать, что очень интересен,
                  D                        G    E 
Возможно я, неважный кавалер,
            Am                         Em     
Но я прошу, не надо портить песню,
      F#                                 H7  
Сославшись на отсутствие манер!

Припев:

           Am    H7                   Em     
А на дворе холодный, мелкий дождь,
            Am      D           G    
И на душе, такая же погода
         C             E              Am    
Там что-то холодает, год от года,
          F#      Am            H7    
И почему-то пробирает дрожь!

              Em                            Am 
Мадам, поверьте - я последний грош
                D                                G     E
Готов немедля заплатить, как подать,
    Am                 H7               Em       
За то, чтоб Вы ответили: "Ну, что ж..."

Проигрыш: Am  H7  Em

Я не хочу, мадам, быть слишком неучтивым,
И не могу чего-то обещать,
Но разве можно сделать Вас счастливой,
Укрыв полой промокшего плаща?

Я попрошу, мадам, позвольте только слово,
Уйдёте Вы, останется вино...
А вот душа, она ждала иного,
Но если Вы уйдёте - всё равно!

Припев.

Окончание: Em  Am  H7 - 2 раза Em
 
Новые добавления
Статистика

Онлайн всего: 47
Гостей: 46
Пользователей: 1
Justas

Яндекс.Метрика

Вход на сайт