Accordium Delectus Подборка аккордов Главная Отзывы Заявка на песню Аккорды Табы Новости Видео Статьи FAQ О сайте
А   Б   В   Г   Д   Е   Ё   Ж   З   И   Й   К   Л   М   Н   О   П   Р   С   Т   У   Ф   Х   Ц   Ч   Ш   Щ   Э   Ю   Я
 
A   B   C   D   E   F   G   H   I   J   K   L   M   N   O   P   Q   R   S   T   U   V   W   Y   Z                       0...9
Разделы сайта
                   
Настройка гитары
1-я струна E  

2-я струна H  

3-я струна G  

4-я струна D  

5-я струна A  

6-я струна E  

Главная > Песни из кино - и мультфильмов > Непогода

Павел Смеян - Непогода (из к/ф "Мэри Поппинс, до свидания!") Текст песни с аккордами, табулатура

По заказу Николая Ленкова


Вступление:


E|-----3-2-3-------3-2-3------2--------0--------------------------0------|

H|-----3-2-3-------3-2-3--------3--------3------3--------3------0----3---|

G|--------------------------2-----2--------2------4--------4-----------2-|

D|----------------------------0---------------------4--------4-----------|

A|--------------0----------------------4--------2--------0---------------|

E|-0------------------------------------------------------------3----2---|

 

E|------3-2-3-----------0---------------------0--------------------------|

H|------3-2-3---------2-----2------3--------------0------3----2----------|

G|------------------0---------0--------4--------1---1----4----2----------|

D|-----------------------------------4---4--------------------2----------|

A|---------------1-----------------2----------2----------2----0----------|

E|-0---------------------------------------------------------------------|



D                               
Изменения в природе
G                 A              
Происходят год от года
D                                   
Непогода нынче в моде,
 
G               A    F#   
Непогода, непогода

Hm              Hm+7           
Словно из водопровода,
Hm7                      E9            
   Льёт на нас с небес вода...

           G          A       D     Hm 
Полгода плохая погода,
            G           A          D   Hm
Полгода совсем никуда
           G          A       D     Hm 
Полгода плохая погода,
      G           F#        Hm 
Полгода совсем никуда!

Припев:

                     Em7      A7     D Dsus2/C#  Hm     
Никуда, никуда нельзя укры-ы-ы-ться  нам,
                                             Em7        A7         D   Dsus2/C#  Hm  
Но откладывать жизнь никак нельзя!
                      Em7      A7           D Dsus2/C#   Hm     
Никуда, никуда, но знай, что где-е-е-то      там,
                          Em7     F#      Hm   A
   Кто-то ищет тебя среди дождя...


Грома грозные раскаты,
От заката до восхода
За грехи людские плата -
Непогода, непогода...

Не ангина, не простуда,
Посерьёзнее беда!

Полгода плохая погода,
Полгода совсем никуда
Полгода плохая погода,
Полгода совсем никуда!

Припев - 2 раза.

                    Em7      A7           D Dsus2/C#   Hm    
Никуда, никуда, но знай, что где-е-е-то      там,
                         Em7     F#     Hm   
   Кто-то ищет тебя среди дождя...

Hm+7                                 E9

    

Dsus2/C#


 
Новые добавления
Статистика

Онлайн всего: 93
Гостей: 93
Пользователей: 0

Яндекс.Метрика

Вход на сайт