Accordium Delectus Подборка аккордов Главная Отзывы Заявка на песню Аккорды Табы Новости Видео Статьи FAQ О сайте
А   Б   В   Г   Д   Е   Ё   Ж   З   И   Й   К   Л   М   Н   О   П   Р   С   Т   У   Ф   Х   Ц   Ч   Ш   Щ   Э   Ю   Я
 
A   B   C   D   E   F   G   H   I   J   K   L   M   N   O   P   Q   R   S   T   U   V   W   Y   Z                       0...9
Разделы сайта
                   
Настройка гитары
1-я струна E  

2-я струна H  

3-я струна G  

4-я струна D  

5-я струна A  

6-я струна E  

Песни под гитару - Стар я стал Текст песни с аккордами


От Елизаветы (Москва)


Оригинальная тональность - C#m


Вступление: 


E|-3----2----0----2----3----2----0----2----|

H|---3----3----3----3----3----3----3----3--|

G|-----------------------------------------|

D|-----------------------------------------|

A|-----------------------------------------|

E|-----------------------------------------|

G                       D               
Ты злишься, что я так глух,
C                     D                  
Когда ты вздыхаешь вслух,
G                D                     
Когда ты даёшь мне знать,
C                     D           
Что будешь одна опять

Припев:

        C                  D                    
Прости, но я так устал,
G              G    D   Em            
Я стар слишком рано стал
   Em D C                    D                          
Устал я цветы дарить,
   C                         D           
   Стар я стал, чтоб тебя любить...

Проигрыш:


E|-3----2----0----2----3----2----0----2----|

H|---3----3----3----3----3----3----3----3--|

G|-----------------------------------------|

D|-----------------------------------------|

A|-----------------------------------------|

E|-----------------------------------------|



Но если б другим я был,
Я б не был тебе так мил
И ты б не вздыхала вслед,
О том, что я лучше всех

Припев.

Окончание:

                                                                                                   G                     

E|-3----2----0----2----3----2----0----2----3--|

H|---3----3----3----3----3----3----3----3--0--|

G|-----------------------------------------0--|

D|-----------------------------------------0--|

A|-----------------------------------------2--|

E|-----------------------------------------3--|

 
Новые добавления
Статистика

Онлайн всего: 19
Гостей: 19
Пользователей: 0

Яндекс.Метрика

Вход на сайт