Accordium Delectus Подборка аккордов Главная Отзывы Заявка на песню Аккорды Табы Новости Видео Статьи FAQ О сайте
А   Б   В   Г   Д   Е   Ё   Ж   З   И   Й   К   Л   М   Н   О   П   Р   С   Т   У   Ф   Х   Ц   Ч   Ш   Щ   Э   Ю   Я
 
A   B   C   D   E   F   G   H   I   J   K   L   M   N   O   P   Q   R   S   T   U   V   W   Y   Z                       0...9
Разделы сайта
                   
Настройка гитары
1-я струна E  

2-я струна H  

3-я струна G  

4-я струна D  

5-я струна A  

6-я струна E  
Главная > Р > Рок-Острова > Под покровом ночи

Рок-Острова: Под покровом ночи


Вступление (примерный вариант перебора):

Em                         Cmaj7                        

E|------0-------------0-------------0-------------0--------|

H|---------0---0---------0---0---------0---0---------0---0-|

G|----0------0------0------0------0------0------0------0---|

D|---------------------------------------------------------|

A|-----------------------------3-------------3-------------|

E|-0-------------0-----------------------------------------|

 Asus2        D6sus2          Em                           

E|------0-------------0-------------0-------------0--------|

H|---------0---0---------0---0---------0---0---------0---0-|

G|----2------2------2------2------0------0------0------0---|

D|---------------0-----------------------------------------|

A|-0-------------------------------------------------------|

E|-----------------------------0-------------0-------------|

 Cmaj7                       Asus2                          

E|------0-------------0-------------0-------------0--------|

H|---------0---0---------0---0---------0---0---------0---0-|

G|----0------0------0------0------2------2------2------2---|

D|---------------------------------------------------------|

A|-3-------------3-------------0-------------0-------------|

E|---------------------------------------------------------|

   D            Hm            Em                            

E|------2-------------2-------------0-------------0--------|

H|---------3---3---------3---3---------0---0---------0---0-|

G|----2------2------4------4------0------0------0------0---|

D|-0-------------------------------------------------------|

A|---------------2-----------------------------------------|

E|-----------------------------0-------------0-------------|


           Em                     Cmaj7         
Ночь рисует сумерки за моим окном,
    Asus2       D6sus2          Em                
Окунает кисточку в банку с ярким сном,
   Cmaj7                           Asus2            
Окунает кисточку в банку с ярким сном,
             D   Hm               Em               
Ночь рисует сумерки за моим окном...

Припев:

            Am7              C
Под покровом ночи...
                  Dsus4             Em(2)
Под покровом ночи...
             Am7              C
Под покровом ночи...
                  Dsus4             Em(2)
Под покровом ночи...


Перепачкав пальцами неба синий холст,
Ночь рисует жёлтые мириады звёзд,
Ночь рисует жёлтые мириады звёзд,
Перепачкав пальцами неба синий холст...

Припев.

Под ногами слякотью фыркает земля,
В танце с ночью кружится дикая весна,
В танце с ночью кружится дикая весна,
Под ногами слякотью фыркает земля

Проигрыш - 2 раза:

  Am7                         C                            

E|------3-------------3-------------3-------------3--------|

H|-----------1-------------1-------------1-------------1---|

G|----0----0---0----0----0---0----0----0---0----0----0---0-|

D|---------------------------------------------------------|

A|-0-------------0-------------3-------------3-------------|

E|---------------------------------------------------------|

 Dsus4                       Em(2)                          

E|------3-------------3-------------3-------------3--------|

H|-----------3-------------3-------------0-------------0---|

G|----2----2---2----2----2---2----0----0---0----0----0---0-|

D|-0-------------0-------------2-------------2-------------|

A|---------------------------------------------------------|

E|---------------------------------------------------------|


Припев - 2 раза.

Окончание:

два раза

   Am7                          C                            

E|:------3-------------3-------------3-------------3--------|

H|:-----------1-------------1-------------1-------------1---|

G|:----0----0---0----0----0---0----0----0---0----0----0---0-|

D|:---------------------------------------------------------|

A|:-0-------------0-------------3-------------3-------------|

E|:---------------------------------------------------------|

Dsus4                       Em(2)                          конец

E|------3-------------3-------------3-------------3--------:|---:|

H|-----------3-------------3-------------0-------------0---:|---:|

G|----2----2---2----2----2---2----0----0---0----0----0---0-:|---:|

D|-0-------------0-------------2-------------2-------------:|-2-:|

A|---------------------------------------------------------:|---:|

E|---------------------------------------------------------:|---:|

 
 
Новые добавления
Статистика

Онлайн всего: 50
Гостей: 49
Пользователей: 1
Justas

Яндекс.Метрика

Вход на сайт