Accordium Delectus Подборка аккордов Главная Отзывы Заявка на песню Аккорды Табы Новости Видео Статьи FAQ О сайте
А   Б   В   Г   Д   Е   Ё   Ж   З   И   Й   К   Л   М   Н   О   П   Р   С   Т   У   Ф   Х   Ц   Ч   Ш   Щ   Э   Ю   Я
 
A   B   C   D   E   F   G   H   I   J   K   L   M   N   O   P   Q   R   S   T   U   V   W   Y   Z                       0...9
"
Разделы сайта
                   
Настройка гитары
1-я струна E  

2-я струна H  

3-я струна G  

4-я струна D  

5-я струна A  

6-я струна E  

Сергей Дроздов (Синяя птица): Зачем



Вступление:

  Am      Am+7      Am7     Am/F#     F6       E      Asus2                  

E|-------0--------0--------0--------0---------------------------------------|

H|-----0--------0--------0--------0----------0--------0--------0-------0----|

G|---5--------5--------5--------5----------2--------1--------2---2---2------|

D|-7--------6--------5--------4----------0--------2--------2-------2--------|

A|-------------------------------------------------------0------------------|

E|-------------------------------------1--------0---------------------------|

 

  Am      Am+7      Am7       D      Dm/H       E     D#dim7                 

E|-------0--------0--------0--------2--------------------------2-------2----|

H|-----0--------0--------0--------3----------3--------0------1---1---1------|

G|---5--------5--------5--------2----------2--------1------2-------2--------|

D|-7--------6--------5--------0----------3--------2------1------------------|

A|-------------------------------------2------------------------------------|

E|----------------------------------------------0---------------------------|

 

  F6        E      Asus2       

E|---------------------------|

H|-------0--------0--------0-|

G|-----2--------1--------2---|

D|---0--------2--------2-----|

A|-------------------0-------|

E|-1--------0----------------|


   Am              Am+7          
Зачем опять ты снишься мне,
     Am7             Am/F#
Нарушив мой покой,
     F6                 E         Asus2    
Сказав легко вчера: "Прощай..."

   Am                  Am+7        
Зачем опять рвёшь душу мне,
   Am7             D   
Советуясь со мной,
    Dm/H                      D#dim7            E    
Как дальше жить тебе и с кем делить печаль

Припев:

Am                    Am+7      Am7          
Нам с тобой не надо прощаться,
F6                                  E      Asus2      
Нам всю жизнь друг друга любить
Am                Am+7         D             
Я устал к тебе возвращаться,
Dm/H                        E            D#dim7        
Друг без друга нам ведь не жить,
F6                         E           Asus2     
Друг без друга нам уж не жить

Проигрыш:

 Asus2    Am7/G     D/F#     F6        E          

E|----------------0--------2-------------------|

H|-------0------0--------3----------0--------0-|

G|-----2------5--------2----------2--------1---|

D|---2--------------------------0--------2-----|

A|-0-------------------------------------------|

E|----------3--------2--------1--------0-------|


Зачем стучишь в моё окно
Слезинками дождя
Нарушив снова мой покой

Зачем, сказав, что всё прошло,
Опять зовёшь меня,
Как будто бы назло, мне шепчешь вновь: "Ты мой..."

Припев.

Проигрыш:

 Asus2     F#      Hsus2    F#/B     H7/A      E/G#     Em/G     F#     Hsus2                 

E|----------------------------------0--------2--------0-------------------------------------|

H|-------0--------2--------2------2--------0--------0----------0--------2--------2-------2--|

G|-----2--------3--------4------3--------2--------1----------0--------3--------4---4---4----|

D|---2--------4--------4-----------------------------------2--------4--------4-------4------|

A|-0-----------------2--------1--------0-----------------------------------2----------------|

E|----------2-----------------------------------4--------3--------2-------------------------|


 Hsus2    F#/B     H7/A      E/G#     Em/G     F#     Hsus2       E         

E|----------------0--------2--------0-------------------------------------|

H|-------2------2--------0--------0----------0--------2--------2--------0-|

G|-----4------3--------2--------1----------0--------3--------4--------1---|

D|---4-----------------------------------2--------4--------4--------2-----|

A|-2--------1--------0-----------------------------------2----------------|

E|----------------------------4--------3--------2-----------------0-------|


Припев.

Окончание=Вступление
 
Ещё песни:
 

 
 
Новые добавления
Статистика

Онлайн всего: 73
Гостей: 72
Пользователей: 1
Justas

Яндекс.Метрика

Вход на сайт