Accordium Delectus Подборка аккордов Главная Отзывы Заявка на песню Аккорды Табы Новости Видео Статьи FAQ О сайте
А   Б   В   Г   Д   Е   Ё   Ж   З   И   Й   К   Л   М   Н   О   П   Р   С   Т   У   Ф   Х   Ц   Ч   Ш   Щ   Э   Ю   Я
 
A   B   C   D   E   F   G   H   I   J   K   L   M   N   O   P   Q   R   S   T   U   V   W   Y   Z                       0...9
Разделы сайта
                   
Настройка гитары
1-я струна E  

2-я струна H  

3-я струна G  

4-я струна D  

5-я струна A  

6-я струна E  
Главная > С > Сплин > Романс

Сплин - Романс Аккорды к песне





Вступление (играется вся песня):

  G-9              Cm                 G-9              Cm                     

E|-------------3------------------3----------------3------------------3-----|

H|-------3----------------3>4----------------3----------------3>4-----------|

G|-----4-----4----------5-------5----------4-----4----------5-------5---5---|

D|---6-----6-----6----5-------5-----5----6-----6-----6----5-------5---------|

A|------------------3-----------------------------------3-------------------|

E|-3-----------------------------------3------------------------------------|

 

  Fm                      D#                 Fm         G-9      Cm                   

E|---------------------------------------3--------------------------------------3---|

H|---------8>9-------9-----------3>4------------------9--------3--------3>4---------|

G|------10--------10-----------3-------3---3-------10--------4--------5-------5-----|

D|---10--------10------10----5-------5----------10---------6--------5-------5-----5-|

A|-8-----------------------6------------------8-------------------3-----------------|

E|-------------------------------------------------------3--------------------------|


G-9                       Cm           
И лампа не горит, 
G-9                         Cm           
И врут календари, 
Fm                      D#                             Fm    G-9 
И если ты давно хотела что-то мне сказать, 
          Cm
То говори 

Любой обманчив звук -
Страшнее тишина, 
Когда в самый разгар веселья падает из рук 
Бокал вина

И чёрный кабинет, 
И ждёт в стволе патрон...
Так тихо, что я слышу, как идёт на глубине 
Вагон метро

На площади - полки, 
Темно в конце строки, 
И в телефонной трубке эти, много лет спустя, 
Одни гудки

И где-то хлопнет дверь, 
И дрогнут провода...
Привет! Мы будем счастливы теперь 
И навсегда!
Привет! Мы будем счастливы теперь...

E|--------------------------|

H|-----3-----------3-4--3-4-|

G|---4----------5--5-5--5-5-|

D|-6----------5-------------|

A|----------3---------------|

E|--------------------------|

  …и навсегда!              

 
Новые добавления
Статистика

Онлайн всего: 64
Гостей: 64
Пользователей: 0

Яндекс.Метрика

Вход на сайт