Accordium Delectus Подборка аккордов Главная Отзывы Заявка на песню Аккорды Табы Новости Видео Статьи FAQ О сайте
А   Б   В   Г   Д   Е   Ё   Ж   З   И   Й   К   Л   М   Н   О   П   Р   С   Т   У   Ф   Х   Ц   Ч   Ш   Щ   Э   Ю   Я
 
A   B   C   D   E   F   G   H   I   J   K   L   M   N   O   P   Q   R   S   T   U   V   W   Y   Z                       0...9
Разделы сайта
                   
Настройка гитары
1-я струна E  

2-я струна H  

3-я струна G  

4-я струна D  

5-я струна A  

6-я струна E  
Главная > B > Braxton Toni > Unbreak My Heart

Toni Braxton: Unbreak My Heart



Вступление (примерный вариант перебора):

  F#           Hm                Em                A                         

E|--------------------------------------0-----0-----------------------------|

H|-----------2--3-----3-----3---------0---0-----0---------2-----2-----------|

G|----3---4---------4---4-----4-----0-------0-----------2---2-----2---------|

D|---4------------4-------4-------2-------------------2-------2-------------|

A|--4-----------2-----------------------------------0-----------------------|

E|-2------------------------------------------------------------------------| 

  F#               G               A/G               F#                      

E|----------------------------------------------------------------------9---|

H|-------2-----2----------3-----3----2-----2-----2----------2-----2-----11--|

G|-----3---3-----3------4---4-----4------2---2-----2------3---3-----3---11--|

D|---4-------4--------5-------5--------2-------2--------4-------4-------11--|

A|----------------------------------------------------------------------9---|

E|-2----------------3----------------3----------------2---------------------|


     Hm                     Em                             
Don't leave me in all this pain,
A                                                 Hm      
Don't leave me out in the ra-a-a-a-ain
                      Em                       
Come back and bring back my smile,
               A                       F# 
Come and take these tears away

   Hm                    Em7              
I need your arms to hold me now
       A                          
The nights are so unkind
Hm                         Em                               A               
Bring back those nights when I held you beside me

Припев:

        A7-Hdim7*-C#dim7*-Dm      
Unbreak my heart
Gm                        C   
Say you'll love me again
A7-Hdim7*-C#dim7*-Dm
Undo this hurt you caused
              Gm                                         C              
When you walked out the door and walked outta my life

Uncry these tears
I cried so many nights
Unbreak my heart
                A7      F#7
My heart


Take back that sad word goodbye
Bring back the joy to my life
Don't leave me here with these tears
Come and kiss this pain away

I can't forget the day you left
Time is so unkind
And life is so cruel without you here beside me

Припев.

                                            D#7  G#m  C#m  F#  D#7   G#m  C#m  F#
Hooo-u-u-u...

Hm                      Em                        
Don't leave me in all this pain
A                                               Hm      
Don't leave me out in the ra-a-a-ain
                    Em                               A         
Bring back the nights when I held you beside me

Припев:

Unbreak my heart
Say you'll love me again
Undo this hurt you caused
When you walked out the door and walked outta my life

Uncry these tears
I cried so many, many nights
A7-Hdim7*-C#dim7*
Unbreak my...

Dm                    Gm                       
Unbreak my heart, oh, baby,
      C                       A7     Hdim7* C#dim7*  
Come back and say you love    me

Dm                    Gm                           
Unbreak my heart sweet darling
C                 A7   Hdim7* C#dim7* Dm    Gm       C       A7    
Without you I just can't     go         o-o-o-uo-o-o-uo-o-o-on
 A7       Dm   
Can't go on...

Окончание:

  Dm               Gm                C               A7   Hdim7* C#dim7*     

E|-------1-----1----------3-----3-------------------------------------------|

H|-----3---3-----3------3---3-----3--------1-----1----2------3------5-------|

G|---2-------2--------3-------3----------0---0-----0----0------0------0-----|

D|-0-----------------------------------2-------2----------2------3----------|

A|-----------------------------------3----------------0------2------4-------|

E|------------------3-------------------------------------------------------|

 
 
Новые добавления
Статистика

Онлайн всего: 23
Гостей: 23
Пользователей: 0

Яндекс.Метрика

Вход на сайт