Accordium Delectus Подборка аккордов Главная Отзывы Заявка на песню Аккорды Табы Новости Видео Статьи FAQ О сайте
А   Б   В   Г   Д   Е   Ё   Ж   З   И   Й   К   Л   М   Н   О   П   Р   С   Т   У   Ф   Х   Ц   Ч   Ш   Щ   Э   Ю   Я
 
A   B   C   D   E   F   G   H   I   J   K   L   M   N   O   P   Q   R   S   T   U   V   W   Y   Z                       0...9
Разделы сайта
                   
Настройка гитары
1-я струна E  

2-я струна H  

3-я струна G  

4-я струна D  

5-я струна A  

6-я струна E  
Главная > Т > Трио Меридиан > Я виноват

Трио Меридиан - Я виноват Аккорды и текст песни




          Em                               Am  H7
Скажи, что я уплатой пренебрёг
     Em                            Am     
За всё добро, каким тебе обязан,
              Am             D7              Gmaj7  Cmaj7
Что я забыл заветный твой порог,
     Edim7          Am           H7     
С которым всеми узами я связан

Что я не знал цены твоим часам,
Безжалостно чужим их отдавая,
Что позволял безвестным парусам
Себя нести от милого мне края

Все преступления вольности моей
Ты положи с моей любовью рядом,
Представь на строгий суд своих очей,
Но не казни меня печальным взглядом

         Em 
Я виноват,
       Am       D      G C
Но пусть моя вина
  Edim7              Am                H7
Покажет, как любовь твоя сильна

Я виноват,
Но пусть моя вина
 Edim7              Am      H7      Em
Покажет, как любовь твоя сильна

Проигрыш (табы):

  Em                Am       H7       Em                Am                 

E|------------------------------------------------------------------------|

H|------------------------------------------------------------------------|

G|-------------------------------------------------------4--2-1-2-4-2-4-5-|

D|-4--2-4-2-4-2------5--4-5-4-5-4------4--2-4-2-4-2-----------------------|

A|--------------2-----------------6-----------------2---------------------|

E|----------------3-----------------7-----------------3-------------------|

 

  Am       D7      Gmaj7    Cmaj7  Edim7       Am   H7                     

E|------------------------------------------------------------------------|

H|-------------------7--5-7-5-7-------------------------------------------|

G|-5--4-5-4-5-4-5-4------------------2----0-------------------------------|

D|---------------------------------2--------4-2-2----1--------------------|

A|------------------------------------------------------------------------|

E|------------------------------------------------------------------------|


Я виноват,
Но пусть моя вина
Покажет, как любовь твоя сильна
 
Новые добавления
Статистика

Онлайн всего: 47
Гостей: 47
Пользователей: 0

Яндекс.Метрика

Вход на сайт