Accordium Delectus Подборка аккордов Главная Отзывы Заявка на песню Аккорды Табы Новости Видео Статьи FAQ О сайте
А   Б   В   Г   Д   Е   Ё   Ж   З   И   Й   К   Л   М   Н   О   П   Р   С   Т   У   Ф   Х   Ц   Ч   Ш   Щ   Э   Ю   Я
 
A   B   C   D   E   F   G   H   I   J   K   L   M   N   O   P   Q   R   S   T   U   V   W   Y   Z                       0...9
Разделы сайта
                   
Настройка гитары
1-я струна E  

2-я струна H  

3-я струна G  

4-я струна D  

5-я струна A  

6-я струна E  
Главная > Т > Трофим > Просто так

Трофим - Просто так Аккорды и текст песни, табы

 
Примерный вариант. Надеюсь процентов на 70 сходится :-)

Вступление (наведите курсор)

1-ый куплет

 

   D           H7       Em9      Em7   G         A          D     Em7 A/D     

E|-----2-----------2-----------2--3-----------------------------2--3---5----|

H|-----3-----------4---------3-------------3---------2----------3--3---5----|

G|---2---2-------2---2-----0---------------0---------2--------2-------------|

D|-0---------------------2---------------5---5-----2---2----0------0---0----|

A|-------------2---------------------------------0--------------------------|

E|-------------------------------------3------------------------------------|

      Вот бы взять  и  стать везучим,    чтобы всё как у людей,              

 

   D          H7      Em9      Em7   G        A           D     Dsus2 D       

E|-2---2----------2----------2--3-----------------------------2---0---------|

H|-3---3----------4--------3-------------3--------2-----------3---3---3-----|

G|---2---2------2---2----0---------------0--------2---------2---2---2-2-----|

D|-0-------------------2---------------5---5----2---2-----0-----------0-----|

A|------------2-------------------------------0-----------------------------|

E|-----------------------------------3--------------------------------------|

     Чтоб тепло  в  мороз трескучий,   чтобы лето без дождей                 

 

   G          G/H        A    Gsus2/H A7/C# D       A/C#       Hm            

E|-----------------------------0----2----5------5--------5----------2-------|

H|-----2-----------2---------2----2----5----7--------5----------3-----------|

G|-----0-----------0---------2----0----0----7-7---7--6-6---6----4-4---4-----|

D|---0---0-------0---0-----2----------------0-------------------------------|

A|-------------2---------0--------2----4-------------4----------2-----------|

E|-3------------------------------------------------------------------------|

     Чтоб друзья     звони--ли   ча---ще,       узнавая что да как           

 

 Hsus2    Hm   Em         G      Gsus2/A            D     Em7 A  D        A  

E|--------------0---3---------1---------3-3-------------2--3--5--2--------0-|

H|-2/3/2-2-3----------0-------0---------3-3-------------3--3--5--3---3>2--2-|

G|-4--------------0---------0---0-----0---------------2----------2-2------2-|

D|--------------2-----------------------------------0------------0--------2-|

A|-2--------------------------------0-------------------------------------0-|

E|------------------------3-------------------------------------------------|

                  Чтоб негаданное счастье - просто так                       

 

2-ой куплет

 

Вот бы взять и стать степенным,

Бросить с пятницы курить

Написать роман толстенный

И деньгами не сорить

 

Чтоб огонь горел в камине,

Чтобы с кисточкой колпак,

Чтобы радость без причины -

 

   D     Em7 A  D          

E|-----2--3--5--2--------|

H|-----3--3--5--3----3---|

G|---2----------2--2---2-|

D|-0------------0--------|

A|-----------------------|

E|-----------------------|

Просто так                          

 

Припев:


   F#       Hm                E7                 

E|-------------------2------------0------------|

H|-----2-----3----------------------3--0-3/5-3-|

G|-----3-----4---4-------4------1--------------|

D|---4---4-----4---4---4---4-------------------|

A|-----------2---------------------------------|

E|-2--------------------------0----------------|

   А звёзды падают    всё    выше               

 

 Gmaj7     G/H    C#m7-5                        

E|-----2--------0------------------------------|

H|-----0--------3--------5---------------------|

G|---0---0----0---0------4---------------------|

D|---------------------5---5-------------------|

A|----------2--------4-------------------------|

E|-3-------------------------------------------|

 В озеро    алой  зари                          

 

   F#       Hm                E7                 

E|-------------------2------------0------------|

H|-----2-----3----------------------3--0-3/5-3-|

G|-----3-----4---4-------4------1--------------|

D|---4---4-----4---4---4---4-------------------|

A|-----------2---------------------------------|

E|-2--------------------------0----------------|

   И рыжий  кот  запел  на  крыше:              

 

         G9                A                                 

E|-------5-----------------0----3----5---------|

H|-----3------3----------2----3----5-----------|

G|---4------4---4--------2----0----0-----------|

D|---------------------2-----------------------|

A|-------------------0--------2----4-----------|

E|-3-------------------------------------------|

Let it be,        let it be                               

 

3-й куплет

 

Вот бы взять и стать могучим,

Не судить и не жалеть

Разогнать над миром тучи

И простудой не болеть

 

Чтоб забыть свою усталость,

Сделать к небу первый шаг,

Чтобы ты со мной осталась

Просто так

Припев.

Проигрыш (наведите курсор)

Припев.

   D                  G/D                    

E|-----2---------2---------3------3--------|

H|-----3---------3---------3------3--------|

G|---2---------2---2-----4------4---4------|

D|-0-------------------0-------------------|

A|-----------------------------------------|

E|-----------------------------------------|

      Вот бы взять и стать везучим…        

 

   D                  G/D                   

E|-----2---------2---------3------3--------|

H|-----3---------3---------3------3--------|

G|---2---------2---2-----4------4---4------|

D|-0-------------------0-------------------|

A|-----------------------------------------|

E|-----------------------------------------|

      Вот бы взять и стать степенным…       

 

   D                  G/D                D  

E|-----2---------2---------3------3------2-|

H|-----3---------3---------3------3------3-|

G|---2---------2---2-----4------4---4----2-|

D|-0-------------------0-----------------0-|

A|-----------------------------------------|

E|-----------------------------------------|

     Чтобы  ты  со   мной  осталась…       
 
Новые добавления
Статистика

Онлайн всего: 116
Гостей: 116
Пользователей: 0

Яндекс.Метрика

Вход на сайт