Accordium Delectus Подборка аккордов Главная Отзывы Заявка на песню Аккорды Табы Новости Видео Статьи FAQ О сайте
А   Б   В   Г   Д   Е   Ё   Ж   З   И   Й   К   Л   М   Н   О   П   Р   С   Т   У   Ф   Х   Ц   Ч   Ш   Щ   Э   Ю   Я
 
A   B   C   D   E   F   G   H   I   J   K   L   M   N   O   P   Q   R   S   T   U   V   W   Y   Z                       0...9
Разделы сайта
                   
Настройка гитары
1-я струна E  

2-я струна H  

3-я струна G  

4-я струна D  

5-я струна A  

6-я струна E  
Главная > У > УмаТурман > Раненый в висок

УмаТурман: Раненый в висок



Вступление:

  Am       Fmaj7       Hm7-5         E7              

E|-------------------------------------------------:|

H|-5-----------5------------5------5---------------;|

G|-----------7---7--------7---7-------7--5--4--5-7-:|

D|----7----7-------7----7-------7------------------:|

A|-------------------------------------------------:|

         E|-------------------------------------------------;| - 3 раза

  Am       Fmaj7       Hm7-5         E7              

E|-------------------------------------------------:|

H|-5-----------5------------5------5---------------;|

G|-----------7---7--------7---7-------7--5--4------:|

D|----7----7-------7----7-------7------------------:|

A|-------------------------------------------------:|

E|-------------------------------------------------;|


       Am                Fmaj7  H7              Hm7-5 E7 
Раненый в висок   мыслью глупой я,
         Am          Fmaj7    H7      Hm7-5 E7
Слёзы на песок - смысл бытия
   Am                   Fmaj7 H7          Hm7-5 E7
И не встать с колен   нашим голосам,
           Am                 Fmaj7 H7        Hm7-5 E7 
В письменном столе прячем небеса

Припев:

   Am                    Fmaj7
И город залит тишиной,
Hm7-5                     E7
И нас теперь не найти
 Am                       Fmaj7
Кто-то ушёл в мир иной,
Hm7-5                     E7 
Все остальные в пути

И как по-весне тает снег
Мутной водой да со всех сторон
Кто-то придёт, а нас уже нет,
Лапами еловыми следы похорон


Как воды поток, утром к тебе спешит
Скомканный листок рваной моей души
Выслушай, прошу, жажду мою утоли!
Я ещё дышу, только надолго ли...

Припев.

Проигрыш:

  Am    Fmaj7  Hm7-5   E7               Am    Fmaj7 Hm7-5    E7                    

E|----7-5----7------------------------------7-5----7---------------9~10--12-10----|

H|-5------5----5-------------------------5------5----5--------------------------9-|

G|---------------7--5-7-7~8~7>5>7----5-7---------------7--------------------------|

D|--------------------------------------------------------7-7>9-------------------|

A|--------------------------------------------------------------------------------|

E|--------------------------------------------------------------------------------|


Утра акварель скрасит мою печаль,
Раньше костёр горел, а теперь свеча...
И снова луна спешит с неба кивнуть: "Отбой",
Мне всё равно, где жить, только бы жить с тобой!

Припев.

Окончание:

  Am       Fmaj7       Hm7-5         E7                 

E|----------------------------------------------------:|

H|-5-----------5------------5------5------------------;|

G|-----------7---7--------7---7-------7--5--4--5-7----:|

D|----7----7-------7----7-------7---------------------:|

A|----------------------------------------------------:|

         E|----------------------------------------------------;| - 3 раза

  Am       Fmaj7       Hm7-5         E7                 

E|----------------------------------------------------:|

H|-5-----------5------------5------5------------------;|

G|-----------7---7--------7---7-------7--5--4--5-4----:|

D|----7----7-------7----7-------7-------------------7-:|

A|----------------------------------------------------:|

E|----------------------------------------------------;|


Бой на гитаре (примерный вариант):

 
 
Новые добавления
Статистика

Онлайн всего: 76
Гостей: 75
Пользователей: 1
Justas

Яндекс.Метрика

Вход на сайт