Accordium Delectus Подборка аккордов Главная Отзывы Заявка на песню Аккорды Табы Новости Видео Статьи FAQ О сайте
А   Б   В   Г   Д   Е   Ё   Ж   З   И   Й   К   Л   М   Н   О   П   Р   С   Т   У   Ф   Х   Ц   Ч   Ш   Щ   Э   Ю   Я
 
A   B   C   D   E   F   G   H   I   J   K   L   M   N   O   P   Q   R   S   T   U   V   W   Y   Z                       0...9
Разделы сайта
                   
Настройка гитары
1-я струна E  

2-я струна H  

3-я струна G  

4-я струна D  

5-я струна A  

6-я струна E  
Главная > У > УмаТурман > В городе дождь

УмаТурман: В городе дождь

 
Вступление (табы):

               C C/H Am         Dm Dm/C    G-Am7

E|-----------------------------------------|

H|-----------------------------------------|

G|---7--5-4---------7--7--5----------------|

D|-5---------5---------------2-3-----5-3---|

A|----------------7----------------------5-|

E|-----------------------------------------|

 

              …Bdim7-Gsus2 C C/H Am         Dm Dm/C    G-Am7-Bdim7-Gsus2

E|------------------------------------------|

H|------------------------------------------|

G|---7--5-4----------7--7--5----------------|

D|-5----------5---------------2-3-----5-3---|

A|-----------------7----------------------5-|

E|------------------------------------------|

 

   G-Am7-Bdim7-Gsus2 

E|-3--3----3-----3-|

H|-0--1----2-----3-|

G|-0--0----0-----0-|

D|----0----0-----0-|

A|-----------------|

E|-3---------------|


C                   C/H     Am                      
Похоже, немного осталось совсем,  
         Dm     Dm/C       G        
И скоро зима закружит  
C                    C/H      Am                            
На десять минут бы, ну хотя бы на семь 
        Dm      Dm/C        G       
У прошлого нас одолжить

Конечно, всё это глупости, но
Земля, как волчок, вертится 
А вдруг они, как в каком-то старом кино, 
Когда-то ещё встретятся

Припев:

                 C      C/H  
В городе дождь,    
                       Am                  Dm Dm/C G-Am7...
А так же по области  
   Bdim7-Gsus2 C      C/H
В го-роде    дождь, 
                       Am                        Dm Dm/C G-Am7...
Холодный циклон встречай

  Bdim7-Gsus2  C     C/H
Ты не при-и-дёшь, 
                          Am                Dm Dm/C G-Am7...
Я знаю, меня спасти
    Bdim7-Gsus2  C     C/H
Ты не при-и-дёшь,
                                    Am                        Dm Dm/C  G-Am7-Bdim7-Gsus2
Однажды сказав: "Прощай..." 

Проигрыш:

        C        C/H             Am          Dm      Dm/C    G-Am7-Bdim7-Gsus2

E|-------12------------------------------------------10------------|

H|-----------------12-------12-13—-10------------13-----12---------|

G|-10>12---------------------------------10>9----------------------|

D|-----------10>12-------12--------------0----12--------------10-9-|

A|-----------------------------------------------------------------|

E|-----------------------------------------------------------------|

 

        C        C/H             Am          Dm      Dm/C    G-Am7-Bdim7-Gsus2

E|-------12------------------------------------------10------------|

H|-----------------12-------12-13—-10------------13-----12---------|

G|-10>12---------------------------------10>9----------------------|

D|-----------10>12-------12-------------------12-------------------|

A|-----------------------------------------------------------------|

E|-----------------------------------------------------------------|


Похоже, немного осталось уже, 
Становится всё холодней 
И мы, со временем, осторожней на вираже, 
И ждать перемен всё трудней

Но свежий ветер всё ещё бьётся в окно, 
И солнце с небес светится 
А вдруг они, как в каком-то старом кино, 
Когда-то ещё встретятся... 

Припев.

Окончание:

               C C/H Am         Dm Dm/C    G-Am7…

E|-----------------------------------------|

H|-----------------------------------------|

G|---7--5-4---------7--7--5----------------|

D|-5---------5---------------2-3-----5-3---|

A|----------------7----------------------5-|

E|-----------------------------------------|


   …Bdim7-Gsus2 C C/H Am         Dm Dm/C    G-Am7…

E|------------------------------------------|

H|------------------------------------------|

G|---7--5-4----------7--7--5----------------|

D|-5----------5---------------2-3-----5-3---|

A|-----------------7----------------------5-|

E|------------------------------------------|

 

 …Bdim7-Gsus2 C   

E|--------------|

H|--------------|

G|---7--5-4-----|

D|-5----------5-|

A|--------------|

E|--------------|

Примерный вариант боя на гитаре:

 
 
Новые добавления
Статистика

Онлайн всего: 40
Гостей: 40
Пользователей: 0

Яндекс.Метрика

Вход на сайт