Accordium Delectus Подборка аккордов Главная Отзывы Заявка на песню Аккорды Табы Новости Видео Статьи FAQ О сайте
А   Б   В   Г   Д   Е   Ё   Ж   З   И   Й   К   Л   М   Н   О   П   Р   С   Т   У   Ф   Х   Ц   Ч   Ш   Щ   Э   Ю   Я
 
A   B   C   D   E   F   G   H   I   J   K   L   M   N   O   P   Q   R   S   T   U   V   W   Y   Z                       0...9
Разделы сайта
                   
Настройка гитары
1-я струна E  

2-я струна H  

3-я струна G  

4-я струна D  

5-я струна A  

6-я струна E  

Главная > Песни из кино - и мультфильмов > Прощальный вальс

ВИА Добры молодцы - Прощальный вальс (из к/ф "Розыгрыш") Текст песни с аккордами


  C#m                                               G#                       

E|---4-4---4-4---4-4---4-4---4-4---4-4-----4-4---4-4---4-4---4-4---4-4---4-4|

H|---5-5---5-5---5-5---5-5---5-5---5-5-----5-5---5-5---4-4---4-4---4-4---4-4|

G|---6-6---6-6---6-6---6-6---6-6---6-6-----6-6---6-6---5-5---5-5---5-5---5-5|

D|--------------------------------------------------------------------------|

A|-4-----------4-----------4-------------4-----------6-----------6----------|

E|-------4-----------4-----------4-------------4-----------4-----------4----|

                       Когда  уйдём со школьного двора                      

 

     G#                      C#m       F#m/D#  G#                            

E|------4-4---4-4---4-4---4-4---4-4---4-4---2-2---4-4-----------------------|

H|------4-4---4-4---4-4---4-4---5-5---5-5---2-2---4-4-----------------------|

G|------5-5---5-5---5-5---5-5---6-6---6-6---2-2---5-5-----------------------|

D|----------------------------------------1---------------------------------|

A|----6-----------6-----------4---------------------------------------------|

E|----------4-----------4-----------4-----------4---------------------------|

Под звуки   нестареющего     вальса,                                         

 

  Hm            C#7           F#m   F#m7  F#m/D#           G#             A      

E|---2-2----2-2----4-4----4-4----2-2----2-2----2-2----2-2-----4-4----4-4----5-5-|

H|---3-3----3-3----6-6----6-6----2-2----2-2----2-2----2-2-----4-4----4-4----5-5-|

G|---4-4----4-4----4-4----4-4----2-2----2-2----2-2----2-2-----5-5----5-5----6-6-|

D|-----------------------------4------2------1------1---------------------------|

A|-2------2------4------4-------------------------------------------------------|

E|----------------------------------------------------------4------4------5-----|

 Учитель нас проводит    до угла,        И вновь назад, и вновь  ему с утра:     

 

  C#7    F#m   F#m/D# C#m/E          G#            C#7                       

E|---4-4----2-2----2-2------------------4-4----4-4----4-4----4-4------------|

H|---6-6----2-2----2-2----5-5----5-5----4-4----4-4----6-6----6-6------------|

G|---4-4----2-2----2-2----6-6----6-6----5-5----5-5----4-4----4-4------------|

D|--------4------1--------6-6----6-6----------------------------------------|

A|----------------------7------7------6-------------4------4----------------|

E|-4-----------------------------------------4------------------------------|

    Встречай,         учи         и снова   расста-вай----ся,                              

 

   F#m   F#m/D# C#m/E          G#            C#m                             

E|----2-2----2-2------------------4-4----4-4----4-4----4-4----4-4----4-4----|

H|----2-2----2-2----5-5----5-5----4-4----4-4----5-5----5-5----5-5----5-5----|

G|----2-2----2-2----6-6----6-6----5-5----5-5----6-6----6-6----6-6----6-6----|

D|--4------1--------6-6----6-6----------------------------------------------|

A|----------------7------7------6-------------4-------------4---------------|

E|-------------------------------------4-------------4-------------4--------|

Когда          уйдём       со школьно-го  двора                             

 


Для нас всегда открыта в школе дверь,
Прощаться с ней не надо торопиться
Но как забыть звончей звонка капель
И девочку, которой нес портфель?
Пускай потом ничто не повторится,
Для нас всегда открыта в школе дверь

   F#m   F#m/D# C#m/E          G#            C#m    H7                        

E|----2-2----2-2------------------4-4----4-4----4-4----2-2------------------|

H|----2-2----2-2----5-5----5-5----4-4----4-4----5-5----4-4------------------|

G|----2-2----2-2----6-6----6-6----5-5----5-5----6-6----2-2------------------|

D|--4------1--------6-6----6-6----------------------------------------------|

A|----------------7------7------6-------------4------2----------------------|

E|-------------------------------------4------------------------------------|

Для нас       всегда         открыта в школе дверь                            


Переход в тональность Em

    Em                           H7                                          

E|-----0-0-----0-0----0-0----0-0----2-2----2-2----2-2----2-2----2-2----2-2--|

H|-----0-0-----0-0----0-0----0-0----4-4----4-4----4-4----4-4----4-4----4-4--|

G|-----0-0-----0-0----0-0----0-0----2-2----2-2----2-2----2-2----2-2----2-2--|

D|---2--------------2-------------------------------------------------------|

A|-----------2-------------2------2-------------2-------------2-------------|

E|---------------------------------------2-------------2-------------2------|

Пройдись по тихим школьным    этажам,   Здесь про-о-жито  и  по-о-нято       

 

  Em           Am/F#   H7      Dm             E             Am    Am/G        

E|---0-0----0-0----0-0----2-2-----1-1----1-1----0-0-----0-0----0-0----0-0---|

H|---0-0----0-0----1-1----4-4-----3-3----3-3----0-0-----0-0----1-1----1-1---|

G|---0-0----0-0----2-2----2-2-----2-2----2-2----1-1-----1-1----2-2----2-2---|

D|-2----------------------------0------0------2-------2---------------------|

A|--------2-------------2------------------------------------0--------------|

E|---------------2--------------------------------------------------3-------|

Нема-а-а-ло                Был голос  робок, мел в руке  дрожал             

 

  Am/F#           H7             C     E/H    Am    Am/F#  Em/G              

E|----0-0----0-0-----2-2----2-2----0-0----0-0----0-0----0-0----0-0----0-0---|

H|----1-1----1-1-----4-4----4-4----1-1----0-0----1-1----1-1----0-0----0-0---|

G|----2-2----2-2-----2-2----2-2----0-0----1-1----2-2----2-2----0-0----0-0---|

D|--------------------------------------------------------------------------|

A|-----------------2------2------3------2------0----------------------------|

E|--2------2------------------------------------------2------3------3-------|

Но ты   домой с побе-е-едою   бежал          И е-е-е-если вдруг              

 

  H7             E             Am    Am/F#  Em/G                              

E|---2-2----2-2----0-0----0-0-----0-0----0-0----0-0----0-0------------------|

H|---4-4----4-4----0-0----0-0-----1-1----1-1----0-0----0-0------------------|

G|---2-2----2-2----1-1----1-1-----2-2----2-2----0-0----0-0------------------|

D|---------------2----------------------------------------------------------|

A|-2--------------------2-------0-------------------------------------------|

E|--------2----------------------------2------3------3----------------------|

 удача   за-про-па-а-а-ла, Пройди         по ти-и-и-и-и-хим                  

 

  H7             Em     G#                                                   

E|---2-2----2-2-----0-0----4-4----------------------------------------------|

H|---4-4----4-4-----0-0----4-4----------------------------------------------|

G|---2-2----2-2-----0-0----5-5----------------------------------------------|

D|----------------2---------------------------------------------------------|

A|-2---------------------6--------------------------------------------------|

E|--------2-----------------------------------------------------------------|

 школьным э-э-этажам                                                         

Переход обратно в тональность C#m

Спасибо, что конца урокам нет,
Хотя и ждёшь с надеждой перемены,
Но жизнь - она особенный предмет:
Задаст вопросы новые в ответ
Но ты найди решенье непременно,
Спасибо, что конца урокам нет
 
Новые добавления
Статистика

Онлайн всего: 106
Гостей: 106
Пользователей: 0

Яндекс.Метрика

Вход на сайт