Accordium Delectus Подборка аккордов Главная Отзывы Заявка на песню Аккорды Табы Новости Видео Статьи FAQ О сайте
А   Б   В   Г   Д   Е   Ё   Ж   З   И   Й   К   Л   М   Н   О   П   Р   С   Т   У   Ф   Х   Ц   Ч   Ш   Щ   Э   Ю   Я
 
A   B   C   D   E   F   G   H   I   J   K   L   M   N   O   P   Q   R   S   T   U   V   W   Y   Z                       0...9
Разделы сайта
                   
Настройка гитары
1-я струна E  

2-я струна H  

3-я струна G  

4-я струна D  

5-я струна A  

6-я струна E  
Главная > Д > Дубы-Колдуны > Толстый Карлсон

ВИА Дубы-Колдуны: Толстый Карлсон


В оригинале на два тона выше (E (ми мажор)

Вступление:

C

E|--------------------------|

H|-1--1--1------1-1--1------|

G|-0--------0-2---------0-2-|

D|-2------------------------|

A|-3------------------------|

         E|--------------------------| - 2 раза


C                           Em          
Есть герой в мире сказочном,
Am                      Em            
Он смешной и загадочный
      Am                      Dm                 
На крыше дом, ну а в нём живет он -
                    G           G7        Em7  G/D    
Толстый Карлсон

Малыши просят Карлсона:
"Рассмеши нас, пожалуйста!
Нам скучно жить без тебя, чудак наш,
Толстый Карлсон!"

Припев:

  C                                               Em                G                
Вот мы слышим, снова слышим мотора стук, весёлый стук -
C                                                Em                              G                
Это с крыши, прямо с крыши спешит к нам друг, наш чудесный друг
Am                                 Em                       
Поднимает настроение, дразнит, тормошит,
F                                   G                      
Ест клубничное варенье и ребят смешит,
       Am                        F G
Толстый Карлсон!


Хоть и мы люди взрослые,
Вечно ходим с вопросами:
Ну как тут быть, если нет тебя здесь,
Толстый Карлсон?

Малыши просят Карлсона:
"Рассмеши нас, пожалуйста,
И к нам в окно залети, и спой нам,
Толстый Карлсон!

Припев:

И пропеллер свой заводит
Смешной чудак, смешной чудак,
И к ребятам в окна входит
Ну просто так, ну просто так!

Это значит - сказка может доброй явью стать,
Если Карлсон нам поможет в детство вновь попасть,
Толстый Карлсон!

Проигрыш:

C

E|--------------------------|

H|-1--1--1------1-1--1------|

G|-0--------0-2---------0-2-|

D|-2------------------------|

A|-3------------------------|

         E|--------------------------| - 2 раза

    C            Em         Am           Em       

E|:----------5-3-5-3--3-----5--5--5--3---3------|

H|:-1--1--1----------------------------5---5--5-|

G|:---------------------------------------------|

D|:---------------------------------------------|

A|:---------------------------------------------|

E|:---------------------------------------------|

  Am           Dm           G   G7     Em7 G/D   

E|-5--5--5--3---3-----------3--3-5--7----------:|

H|------------5---5-3--3-----------------------:|

G|---------------------------------------------:|

D|---------------------------------------------:|

A|---------------------------------------------:|

         E|---------------------------------------------:| - 2 раза


Припев:

Вот мы слышим, снова слышим
Мотора стук, весёлый стук -
Это с крыши, прямо с крыши
Спешит к нам друг, наш чудесный друг!

Поднимает настроенье, дразнит, тормошит,
Ест клубничное варенье и ребят смешит,
Жирный Карлсон!

Окончание:

C

E|--------------------------|          E|---|

H|-1--1--1------1-1--1------|          H|-1-|

G|-0--------0-2---------0-2-|          G|-0-|

D|-2------------------------|          D|-2-|

A|-3------------------------|          A|-3-|

E|--------------------------| - 2 раза E|---|

Бой на гитаре (примерный вариант):

 
 
Новые добавления
Статистика

Онлайн всего: 108
Гостей: 108
Пользователей: 0

Яндекс.Метрика

Вход на сайт