Accordium Delectus Подборка аккордов Главная Отзывы Заявка на песню Аккорды Табы Новости Видео Статьи FAQ О сайте
А   Б   В   Г   Д   Е   Ё   Ж   З   И   Й   К   Л   М   Н   О   П   Р   С   Т   У   Ф   Х   Ц   Ч   Ш   Щ   Э   Ю   Я
 
A   B   C   D   E   F   G   H   I   J   K   L   M   N   O   P   Q   R   S   T   U   V   W   Y   Z                       0...9
Разделы сайта
                   
Настройка гитары
1-я струна E  

2-я струна H  

3-я струна G  

4-я струна D  

5-я струна A  

6-я струна E  
Главная > С > Самоцветы > Мой адрес Советский Союз

ВИА Самоцветы - Мой адрес Советский Союз Аккорды и текст песни




Вступление:

  Em                   E7        Am                  H7         

E|-7--7---7--7---7-6-7-12--10-8-7-5--5---5--5---5---5-7--5---5-|

H|------8------8-----------------------7------7---7--------8---|

G|-------------------------------------------------------------|

D|-------------------------------------------------------------|

A|-------------------------------------------------------------|

E|-------------------------------------------------------------|

 

  Em                   E7        Am                  H7         

E|-7--7---7--7---7-6-7-12--10-8-7-5--5---5--5---5---5-7--5-----|

H|------8------8-----------------------7------7---7--------8---|

G|-------------------------------------------------------------|

D|-------------------------------------------------------------|

A|-------------------------------------------------------------|

E|-------------------------------------------------------------|


   Em                             
Колёса диктуют вагонные, 
       Em                    H7 
Где срочно увидеться нам
   H7                           
Мои номера телефонные
       H7                 Em 
Разбросаны по городам

Припев:

    E7       Am        D7            G      
Заботится сердце, сердце волнуется,
              Hm7-5    E        F    
Почтовый паку-у-у-ется груз...
      H7                     Em      
Мой адрес не дом и не улица,
      H7                         Em
Мой адрес - Советский Союз
Мой адрес не дом и не улица,
Мой адрес - Советский Союз

Проигрыш: |Em  Em|Em  E7|Am  Am|Am  H7|

Вы, точки-тире телеграфные, 
Ищите на стройках меня
Сегодня не личное главное,
А сводки рабочего дня

Припев:

Заботится сердце, сердце волнуется,
Почтовый пакуется груз...
Мой адрес не дом и не улица,
Мой адрес - Советский Союз
Мой адрес не дом и не улица,
      H7                         Am
Мой адрес - Советский Союз

Проигрыш:

|Am  Am|Am  A7|B  B|B  E7|

|Am  Am|Am  A7|B  B|B  C7|

Переход на 1 полутон (на 1 лад) выше (Fm)

   Fm                                
Я там, где ребята толковые,
   Fm                           C7    
Я там, где плакаты "Вперёд!",
      C7                         
Где песни рабочие новые
       C7               Fm
Страна трудовая поёт

    F7       Bm       D#7          G#     
Заботится сердце, сердце волнуется,
              Cm7-5    F       F#   
Почтовый паку-у-у-ется груз...
      C7                      Fm       
Мой адрес не дом и не улица,
      C7                         Fm
Мой адрес - Советский Союз
Мой адрес не дом и не улица,
Мой адрес - Советский Союз

Мой адрес не дом и не улица,
Мой адрес - Советский Союз
Мой адрес не дом и не улица,
Мой адрес - Советский Союз

Окончание: |Fm  Fm|Fm  F7|Bm  Bm|Bm  C7|...

Бой на гитаре (примерный вариант):

 
Новые добавления
Статистика

Онлайн всего: 38
Гостей: 38
Пользователей: 0

Яндекс.Метрика

Вход на сайт