Accordium Delectus Подборка аккордов Главная Отзывы Заявка на песню Аккорды Табы Новости Видео Статьи FAQ О сайте
А   Б   В   Г   Д   Е   Ё   Ж   З   И   Й   К   Л   М   Н   О   П   Р   С   Т   У   Ф   Х   Ц   Ч   Ш   Щ   Э   Ю   Я
 
A   B   C   D   E   F   G   H   I   J   K   L   M   N   O   P   Q   R   S   T   U   V   W   Y   Z                       0...9
Разделы сайта
                   
Настройка гитары
1-я струна E  

2-я струна H  

3-я струна G  

4-я струна D  

5-я струна A  

6-я струна E  
Главная > М > Малежик Вячеслав > Не предлагайте дружбу мне

Вячеслав Малежик - Не предлагайте дружбу мне Аккорды и текст песни, табы на гитаре




Вступление - 2 раза:

  Dm              Am7               

E|-1-------0---1---0-----3-----0---|

H|-----3---------------1---1-----1-|

G|---2---2---2---2---0-------0-----|

D|-0-------------------------------|

A|-----------------0---------------|

E|---------------------------------|

  Gm              A7               

E|---------5---3---0-----0~1---0---|

H|-3---3---------------2-----------|

G|---3---3---3---3---0-------0---0-|

D|---------------------------------|

A|-----------------0---------------|

E|-3-------3-----------------------|


    Dm                   Am7    
Разлукой с Вами опечален,
    Gm                         A7
Бреду по миру, как во сне
         Cm                 D7    Gm Gm7
Спасибо Вам, что не солгали
                  Gm6             A7
В тот горький час себе и мне!

Заложник будущих обманов,
Покинул я Ваш светлый дом
Увы, я другом Вам не стану,
Дабы не стать потом врагом!

Припев:
 
             Gm                  A7              Dm     
Не предлагайте дружбу мне, не предлагайте -
           Gm                     Cm   D7    Gm
Я не гожусь на роль влюблённого пажа
   Gm                A7      Dm Dm/C  Gsus2/H
Безумство прежнее во мне  предполагайте,
             Gm/B                               A7
   Как безрассудство расчехлённого ножа...

Проигрыш=Вступление
 
Живу в не доле, как в неволе,
У присмиревшего огня
Храни Вас Бог от этой боли,
Что переполнила меня!

И пусть счастливый Ваш избранник
В ответ вам тихо скажет: "Да!",
И я, надежды вечный странник,
За Вас порадуюсь тогда...
 
Припев - 2 раза.

Окончание:

  Dm              Am7               

E|-1-------0---1---0-----3-----0---|

H|-----3---------------1---1-----1-|

G|---2---2---2---2---0-------0-----|

D|-0-------------------------------|

A|-----------------0---------------|

E|---------------------------------|

  Gm              A7               

E|---------5---3---0-----0~1---0---|

H|-3---3---------------2-----------|

G|---3---3---3---3---0-------0---0-|

D|---------------------------------|

A|-----------------0---------------|

E|-3-------3-----------------------|

  Dm              Am7               

E|-1-------0---1---0-----3-----0---|

H|-----3---------------1---1-----1-|

G|---2---2---2---2---0-------0-----|

D|-0-------------------------------|

A|-----------------0---------------|

E|---------------------------------|

  Gm              A7               

E|---------5---3---0---------------|

H|-3---3---------------2---3---5---|

G|---3---3---3---3---0---0---0---0-|

D|---------------------------------|

A|-----------------0---------------|

E|-3-------3-----------------------|

  Dm             Dsus2              

E|---------1---------------0-------|

H|-----3-------3-------3-------3---|

G|---2---2---2---2---2---2---2---2-|

D|-0---------------0---------------|

A|---------0---------------0-------|

E|---------------------------------|

Dsus2             Dm                

E|---------0-------1---------------|

H|-----3-------3---3---------------|

G|---2---2---2---2-2---------------|

D|-0---------------0---------------|

A|---------0-----------------------|

E|---------------------------------|

 
Новые добавления
Статистика

Онлайн всего: 86
Гостей: 86
Пользователей: 0

Яндекс.Метрика

Вход на сайт