Accordium Delectus Подборка аккордов Главная Отзывы Заявка на песню Аккорды Табы Новости Видео Статьи FAQ О сайте
А   Б   В   Г   Д   Е   Ё   Ж   З   И   Й   К   Л   М   Н   О   П   Р   С   Т   У   Ф   Х   Ц   Ч   Ш   Щ   Э   Ю   Я
 
A   B   C   D   E   F   G   H   I   J   K   L   M   N   O   P   Q   R   S   T   U   V   W   Y   Z                       0...9
Разделы сайта
                   
Настройка гитары
1-я струна E  

2-я струна H  

3-я струна G  

4-я струна D  

5-я струна A  

6-я струна E  
Главная > К > Кузьмин Владимир > Я был далеко

Владимир Кузьмин: Я был далеко



Вступление:

   G           C              G                        

E|----------------------------------------------------|

H|----------------------------------------------------|

G|--------------------------3------------3------------|

D|----------------------------5--5--5--5---5--5--5--5-|

A|-------------3---3--3--3----------------------------|

         E|-3--3-3-3-3-----------------------------------------| - 2 раза


G                                 
Я был далеко, я не знаю, где,
     C                                  G 
Я был далеко, я не знаю, где,
         F                     C                           G 
Мне кажется, я искупался в мёртвой воде

Я был где-то там, за зеркальной стеной,
Я был где-то там, за зеркальной стеной,
Я смутно помню, что случилось со мной

G       
Я не видел их, но я ощущал,
                 C                   G   
Я не видел их, но я ощущал,
   D7+9                                          C  
Как явно кто-то меня от бед защищал

Припев:

                  G                        B   
Это был не сон, это был не бред,
C                                                  G      
Я как будто жил, а как будто - нет
                  G                        B   
Это был не сон, это был не бред,
C                                                  G      
Я как будто жил, а как будто - нет

Проигрыш:

G

E|---------------------------------------------------------|

H|---------------------------------------------------------|

G|-3-------------3-------------3-------------3-------------|

D|---5--5--5-3-5---5--5--5-3-5---5--5--5-3-5---5--5--5-3-5-|

A|---------------------------------------------------------|

E|---------------------------------------------------------|


Я помнил всё, но не вспоминал,
Я помнил всё, но не вспоминал,
Я узнал то, о чём уже раньше знал

Я был упрятан или сам ушёл,
Я был упрятан или сам ушёл,
Шёл сам по себе или кто-то вёл

G                                  
Я боялся столкнуться с людьми,
Чтобы не быть похожим на них
C                          
Это был мой идеальный мир,
G                     
Я не желал в нём видеть других,
 D7+9                                   C  
Я не желал в нём видеть других

Припев.

Проигрыш:

G

E|---------------------------------------------------------|

H|---------------------------------------------------------|

G|-3-------------3-------------3-------------3-------------|

D|---5--5--5-3-5---5--5--5-3-5---5--5--5-3-5---5--5--5-3-5-|

A|---------------------------------------------------------|

E|---------------------------------------------------------|


Отчаянье угасло, и мозг остыл,
Отчаянье угасло, и мозг остыл,
Я всех любил и всех простил

Я стал таким, каким быть желал,
Я много искал, я много читал,
Я стал самим собой и обрёл покой

                      G
Всё, о чем я мечтал!

Проигрыш:

G  G  B  B  C  C  G  G - 2 раза

    C                         Cm             
Я не был счастлив и не был рад,
G                                     
И не стремился вернуться назад
   D/F#                 D            
Я был один, но не одинок -
     G                              D       G  
Была где-то муза, был всюду Бог

Я не был счастлив и не был рад,
И не стремился вернуться назад
Я был один, но не одинок -
Была где-то муза, был всюду Бог

Бой на гитаре (примерные варианты):

Куплет


Припев

 
 
Новые добавления
Статистика

Онлайн всего: 81
Гостей: 81
Пользователей: 0

Яндекс.Метрика

Вход на сайт