Accordium Delectus Подборка аккордов Главная Отзывы Заявка на песню Аккорды Табы Новости Видео Статьи FAQ О сайте
А   Б   В   Г   Д   Е   Ё   Ж   З   И   Й   К   Л   М   Н   О   П   Р   С   Т   У   Ф   Х   Ц   Ч   Ш   Щ   Э   Ю   Я
 
A   B   C   D   E   F   G   H   I   J   K   L   M   N   O   P   Q   R   S   T   U   V   W   Y   Z                       0...9
Разделы сайта
                   
Настройка гитары
1-я струна E  

2-я струна H  

3-я струна G  

4-я струна D  

5-я струна A  

6-я струна E  
Главная > В > Воскресение > Музыкант

Воскресение: Музыкант



  Am           Am/G             F       Am   
Повесил свой сюртук на спинку стула музыкант,
    Am        Am/G          F          C  
Расправил нервною рукой на шее чёрный бант
C     C/H            Bdim7                   
Подойди скорей поближе, чтобы лучше слышать,
A7                         Dm   
Если ты ещё не слишком пьян

E|-1----0-------------|

H|-----------3----1---|

G|---0----0----0----0-|

D|-3----2----0--------|

A|----------------3---|

E|--------------------|



E                           Am    Am/G  Am/F#  
О несчастных и счастливых, о добре и зле,
         F       H7            E 
О лютой ненависти и святой любви
Dm              E            Am    Am/G   Am/F#   
Что творится, что творилось на твоей земле -
            F          H7        E 
Всё в этой музыке, ты только улови



Вокруг тебя шумят дела, бегут твои года
Зачем явился ты на свет - ты помнил не всегда
Звуки скрипки всё живое,
Спящее в тебе разбудят,
Если ты ещё не слишком пьян

О несчастных и счастливых, о добре и зле,
О лютой ненависти и святой любви
Что творится, что творилось на твоей земле -
Всё в этой музыке ты только улови


Устала скрипка, хоть кого состарят боль и страх...
Устал скрипач, хлебнул вина, натягивая фрак
И ушёл не попрощавшись, позабыв немой футляр,
Словно был старик сегодня пьян

А мелодия осталась ветерком в листве,
Среди людского шума еле уловима...
О несчастных и счастливых, о добре и зле,

              F          H7       E        Am  
О лютой ненависти и святой любви...

Окончание:

 Am               Am/G             Am/F#              G           

E|----------0-------------------0-------------------0-------------------1---|

H|------1-------1-----------1-------1-----------1-------1-----------0-------|

G|----2---2---2---2-------2---2---2---2-------2---2---2---2-------0---0---0-|

D|--------------------------------------------------------------------------|

A|-0------------------------------------------------------------------------|

E|---------------------3-------------------2-------------------3------------|

  C               C/H              Bdim7              A7           

E|----------0-------------------0-------------------0-------------------0---|

H|------1-------1-----------1-------1-----------2-------2-----------2-------|

G|----0---0---0---0-------0---0---0---0-------0---0---0---0-------0---0---0-|

D|--------------------------------------------------------------------------|

A|-3-------------------2-------------------1-------------------0------------|

E|--------------------------------------------------------------------------|

  Dm              Dm/C             Dm/H               G             

E|----------1------------------1-------------------1-------------------1----|

H|------3-------3----------3-------3-----------3-------3-----------0--------|

G|----2---2---2---2------2---2---2---2-------2---2---2---2-------0---0---0--|

D|-0------------------------------------------------------------------------|

A|---------------------3------------------2---------------------------------|

E|------------------------------------------------------------3-------------|

  C                 E               Am        Am/G        F         E         

E|----------0-------------------0--------------------------------------------------------|

H|------1-------1-----------0-------0-----------1-----------1-----------1-----------0----|

G|----0---0---0---0-------1---1---1---1-------2---2-------2---2-------2---2-------1---1--|

D|---------------------------------------------------------------------------------------|

A|-3---------------------------------------0---------------------------------------------|

   E|---------------------0-------------------------------3-----------1-----------0---------|...


 
 
Новые добавления
Статистика

Онлайн всего: 35
Гостей: 35
Пользователей: 0

Яндекс.Метрика

Вход на сайт