Accordium Delectus Подборка аккордов
 
Главная > К > Коренюгин Александр > Радость черноглазая

Александр Коренюгин: Радость черноглазая




Смотреть в тональности Em


Вступление:

E|-------0----1----------0----1----------0----1-----------------|

H|-----3----3----------3----3----------3----3----------2-3----5-|

G|---2---------------2---------------3---------------0------0---|

D|-0------------------------------------------------------------|

A|-----------------3---------------1---------------0------------|

E|--------------------------------------------------------------|

 

E|-------0----1----------0----1----------0----1-----------------|

H|-----3----3----------3----3----------3----3----------2-3----5-|

G|---3---------------2---------------3---------------0------0---|

D|--------------------------------------------------------------|

A|--------------------------------------------------------------|

E|-3---------------1---------------0---------------0------------|

 

E|-------0----1----------0----1----------0----1----------0----0-|

H|-----3----3----------3----3----------3----3----------2----2---|

G|---2---------------2---------------3---------------0----------|

D|-0------------------------------------------------------------|

A|-----------------3---------------1---------------0------------|

E|--------------------------------------------------------------|

 

 

 

E|-------0----1----------0----0----------0----1----------0----1-|

H|-----3----3----------1----1----------3----3----------3----3---|

G|---3---------------0---------------2---------------2----------|

D|---------------------------------0----------------------------|

A|-----------------0-------------------------------3------------|

E|-3------------------------------------------------------------|

      Можно я  дотронусь     до тебя,                            

 

E|-------0----1----------0----0----------0----1----------0----1-|

H|-----3----3----------1----1----------3----3----------3----3---|

G|---3---------------0---------------2---------------2----------|

D|---------------------------------0----------------------------|

A|-----------------0-------------------------------3------------|

E|-3------------------------------------------------------------|

      До ресниц твоих      и до волос                           

 

E|-------0----1----------0----0----------0----1----------0>1>0-------|

H|-----3----3----------1----1----------3----3----------3-------3-----|

G|---3---------------0---------------2---------------2-----------2-3-|

D|---------------------------------0---------------------------------|

A|-----------------0-------------------------------3-----------------|

E|-3-----------------------------------------------------------------|

       И в душе надежду        затая,                                

 

E|-------0----1----------0----0----------0----1----------0----1------|

H|-----3----3----------1----1----------3----3----------3----3--------|

G|---3---------------0---------------2---------------2---------------|

D|---------------------------------0---------------0-----------------|

A|-----------------0-------------------------------------------------|

E|-3-----------------------------------------------------------------|

      Можно   я задам тебе     вопрос                                

 

 И с ответом не потороплю,

Даже вечность буду ждать тебя

Мне с тобою лучше, чем в раю,

Радость черноглазая моя 

Припев: 

E|-------0----0----------3----0----------1----3----------0----1-|

H|-----3----3----------2----2----------1----1----------1----1---|

G|---3---------------0---------------2---------------2----------|

D|--------------------------------------------------------------|

A|-----------------3--------------------------------------------|

E|-3-------------------------------1---------------1------------|

       Я не буду с неба звёзд срывать,                            

 

E|-------0----0----------3----0----------0----1----------5----8-|

H|-----3----3----------2----2----------1----1----------4----4---|

G|---3---------------0---------------2---------------5----------|

D|-------------------------------------------------4------------|

A|-----------------3--------------------------------------------|

E|-3-------------------------------1----------------------------|

       Облака на  нитках     приводить                           

 

E|-------0----1----------0----0----------0----1----------0----1-|

H|-----3----3----------1----1----------3----3----------3----3---|

G|---3---------------0---------------2---------------2----------|

D|---------------------------------0----------------------------|

A|-----------------0-------------------------------3------------|

E|-3------------------------------------------------------------|

      Только буду губы        целовать,                         

 

E|-------0----1----------0----0----------0----1----------0----1-|

H|-----3----3----------1----1----------3----3----------3----3---|

G|---3---------------0---------------2---------------2----------|

D|---------------------------------0---------------0------------|

A|-----------------0--------------------------------------------|

E|-3------------------------------------------------------------|

      Только буду  я  тебя      любить                           

 

 А ещё взгляну тебе в глаза

И лицо слезами окроплю,

Разреши, хоть раз произнесу

Это слово нежное – люблю 

Припев.

Проигрыш=Вступление

 Припев. 

Только буду я тебя любить…

Только буду я тебя любить…

Только буду я тебя любить…

 


 
Последние комментарии

"Мой отец-участник ВОВ. Мать всю войну трудилась на тяжелых работах."
 

"Десантник - это не профессия, это НАЦИОНАЛЬНОСТЬ. Слава ВДВ!"
 

"Очень понравилась песня!!!! 👍
 

"Виктор Кто автор слов и музыки???"
 

"С праздником!"
Статистика

Онлайн всего: 94
Гостей: 94
Пользователей: 0
Вход на сайт