Accordium Delectus Подборка аккордов
 

Анна Горшкова: Боль (фильм Моя любовь)


      Dm                          Gm       
За окном листок осенний кружится,
        C                                    F            
Полетел за ветерком, от клёна сорванный
       Dm                            Gm         
А на сердце всё, что было, рушится,
             B                               A           
Может кто провёл рукою заколдованной?

Нету слёз, слова все сказанны,
Превратилися в дождинки-капельки,
Стороной прошло - не узнали мы
В белом облаке счастья нашего

Припев:

                  Dm                                      Gm          
Как сердце может биться ровно, когда такая боль,
              A                                         Dm           
Как это может длиться долго, не знали мы с тобой
               B                                          Gm               
Река разделит жизни ровно - где берег твой, где мой,
    A                        Dm    
Иди, я не пойду с тобой...


Ветром в стаи облака собираются,
Птицы пойманы, в сетях сердце мается
Остаются надо мною тучи тёмные,
Дождь слезою по стеклу в душу просится

Припев - 2 раза.

Примерный вариант перебора:

Dm                                                                           Gm                                                                      

E|----------1---------------------1-------------------3------------------3-------|

H|------3-------3-------------3-------3-----------3-------3----------3-------3---|

G|----2---2---2---2---------2---2---2---2-------3---3---3---3------3---3---3---3-|

D|-0--------------------0--------------------------------------------------------|

A|-------------------------------------------------------------------------------|

E|-------------------------------------------3------------------3----------------|

  C                                                                               F                                                                   

E|----------0---------------------0-------------------1------------------1-------|

H|------1-------1-------------1-------1-----------1-------1----------1-------1---|

G|----0---0---0---0---------0---0---0---0-------2---2---2---2------2---2---2---2-|

D|-------------------------------------------3------------------3----------------|

A|-3--------------------3--------------------------------------------------------|

E|-------------------------------------------------------------------------------|

Dm                                                                           Gm                                                                  

E|----------1---------------------1-------------------3------------------3-------|

H|------3-------3-------------3-------3-----------3-------3----------3-------3---|

G|----2---2---2---2---------2---2---2---2-------3---3---3---3------3---3---3---3-|

D|-0--------------------0--------------------------------------------------------|

A|-------------------------------------------------------------------------------|

E|-------------------------------------------3------------------3----------------|

B                                                                                A                                                                   

E|----------1---------------------1-------------------0------------------0-------|

H|------3-------3-------------3-------3-----------2-------2----------2-------2---|

G|----3---3---3---3---------3---3---3---3-------2---2---2---2------2---2---2---2-|

D|-------------------------------------------------------------------------------|

A|-1--------------------1--------------------0------------------0----------------|

E|-------------------------------------------------------------------------------|


Бой на гитаре (примерный вариант):

 


 
Последние комментарии

"Конечно жалко жизнь одна и ничего не повториться..."
 

"21 Век. Ноты. Ноты нужны..."
 

"В спешке суеты земной-замерла душа, Мне молитву-бы прочесть,да память-вдруг ушла. Мне-бы в рай-бы полететь-на ветрах тугих,-Ветер за мои грехи-вдруг над адом стих. А над лагерем кружит-стаей вороньё -Словно чёртова сестра-бьёт в окно моё. Я покаяться хочу,да не хватает сил.-Боже за грехи свои,-я тебе не мил... Крылья мои крылья,-не поднять,Будто в узел связаны они. На судьбу не буду я пенять, За беспечно прожитые дни. Может быть -естчо мне повезёт, -Крылья разорвать сумею я. И -увидит гордый мой полёт,-матушка родимая,-земля! Так свернула колея,-стал я всем чужой -Ты прости отец меня,-двери мне открой. Хоть душа свита грехом,но ведь тебе я сын. Мне б на крыльях-в отчий дом,-а я пришёл босым... Я подправил слова в рифму песни ''Крылья,,"
 

"Лови"
 

"Супер класс!"
Статистика

Онлайн всего: 85
Гостей: 85
Пользователей: 0
Вход на сайт