Accordium Delectus Подборка аккордов
 
ГлавнаяА > Артерия > Дорога без тебя

Артерия: Дорога без тебя


Вступление (примерный вариант перебора)


   Em               G                D                      Am                      

E|-------0----------1----------2------------------|

H|-----0----------0----------3------------0-------|

G|---0----------0----------2----------2-----2-0-2-|

D|-2---------------------0------------------------|

A|----------------------------------0-------------|

E|------------3-----------------------------------|

    Em              G                D                         C                       

E|-------0----------1----------2----0----0--------|

H|-----0----------0----------3------1------1------|

G|---0----------0----------2--------0--------0----|

D|-2---------------------0----------2----------2--|

A|----------------------------------3-------------|

E|------------3-----------------------------------|

 

  Em        G           
Свет одиноких душ
       D               Am             
Озаряет ночь и уходит прочь
Em              G             
Нет, так не может быть,
          D            C   
Ты ушла навсегда...

Ты далеко теперь,
Холод вечной тьмы бережёт твой сон
Я всё разрушил сам,
Я наказан сполна!

     C        Hm         
Страх одиночества
          С                  Hm        
Разрывает мне душу пополам
  C         Hm             
Небу вопрос немой -
           Am          H7   
Где же ты, где я сам?

Припев:

           Em          
Дорога без тебя -
      D     C        
Пуста и холодна
     C/H  Am        Am/G
Острым  лезвием боль
            Am            D
Ранит в сердце меня

Дорога без тебя -
Пуста и холодна
Без тебя свет померк,
           Am            H7   
Целый мир - пустота...


Но, лишь угаснет день,
В твой далёкий мир я открою дверь
Там, в царстве вечных снов,
Ждёт меня призрак твой

Я позабуду боль,
Прикоснусь щекой к ледяным рукам
Светом иллюзии
Ты обманешь меня


Страх одиночества
Разрывает мне душу пополам
Небу вопрос немой -
Где же ты, где я сам?

Припев.

Страх одиночества
Разрывает мне душу пополам
Небу вопрос немой -
Где же ты, где я сам?

Припев.

Окончание: Em  G  D  Am  Em

Бой на гитаре (примерный вариант):

C/H                                                Am/G

   

 


 
Последние комментарии

"Вы это песню выкладывали в исполнении "Цветов"."
 

"Любые слова, похвалы, не смогут выразить признательность авторам, Михаилу Таничу и Серёже Коржукову. Земля им пухом."
 

"После знака / идет басовая нота , которую надо играть, например F#/B это аккорд фа диез с басовой си или h7/d# аккорд си септ с басовой ре диез, обычно басовые ноты играются когда идет перебор аккорда (арпеджио)..."
 

"Что за аккорды: F#/В и H7/D# ?.. их в сборнике нету..."
 

"У Валерия Кузнецова другая музыка H7 E7 Am Dm G C A7 Dm H7 E7 G C A7 Dm Dm Am H7 E7 Am"
Статистика

Онлайн всего: 136
Гостей: 135
Пользователей: 1
gurskyde
Вход на сайт