Accordium Delectus Подборка аккордов
 
Главная > Н > Николаев Игорь > Мы совпали с тобой

Игорь Николаев: Мы совпали с тобой


Вступление (примерный вариант перебора):


Am         Am/G          F                   G          G/F        C/E                        

E|--------0-----------0-----------1-----1-------------1-----------1-----------0-----0----|

H|------1-----------1-----------1---1-----1---------0-----------0-----------1---1-----1--|

G|----2-----------2-----------2-------2-----------0-----------0-----------0-------0------|

D|---------------------------------------------------------------------------------------|

A|-0-------------------------------------------------------------------------------------|

E|-------------3-----------1-------------------3-----------1-----------0-----------------|

   F          F/E         Dm         Dm/C        Esus4        E         Am                

E|--------1-----------1-----------1-----------1-----------0-----------0---------0----0---|

H|------1-----------1-----------3-----------3-----------0-----------0---------1---1---1--|

G|----2-----------2-----------2-----------2-----------2-----------1---------2-------2----|

D|-3-----------2-----------0-----------------------2-----------2-------------------------|

A|-------------------------------------3---------------------------------0-------------0-|

E|---------------------------------------------------------------------------------------|




              C                  Gsus2/H   
Мы совпали с тобой, совпали,
                 F                           C  
В день, запомнившийся навсегда
            C                      Em7  
Как слова совпадают с губами,
                   F                        Esus4   E
С пересохшим горлом — вода

Припев:

          Am                     Dm7    
Мы совпали, как птицы с небом,
             G              G/F        C/E    
Как земля с долгожданным снегом
           F          F/E      Dm 
Совпадает в начале зимы,
Dm/C  Esus4       E    Am
Так с тобою совпали мы

Мы совпали, как птицы с небом,
Как земля с долгожданным снегом
Совпадает в начале зимы,
Так с тобою совпали мы


Мы совпали, ещё не зная
Ничего о зле и добре
И навечно совпало с нами
Это время в календаре...

Припев.

Переход на 1 тон (на 2 лада) выше (Hm)

Проигрыш:


  Hm       Hm/A       Em                  A        A/G        Dsus4                      

E|--------2---------2---------0-----0-------------0---------0-----------2-----2----------|

H|------3---------3---------0---0-----0---------2---------2-----------2---2-----2--------|

G|----4---------4---------0-------0-----------2---------2-----------2-------2------------|

D|---------------------------------------------------------------0-----------------------|

A|-2---------0-----------------------------0---------------------------------------------|

E|---------------------0-----------------------------3-----------------------------------|

  G         G/F#         Em         Em/D       F#sus4      F#       Hm               

E|--------1----------1-----------0-----------0-----------2---------2-------2----2----|

H|------0----------0-----------0-----------0-----------2---------2-------3---3----3--|

G|----0----------0-----------0-----------0-----------4---------3-------4-------4-----|

D|------------------------2-----------0-----------4---------4------------------------|

A|-------------------------------------------------------------------2---------------|

E|-3----------2----------------------------------------------------------------------|




              D                  Asus2/C# 
Мы совпали с тобой, совпали,
                 G                           D  
В день, запомнившийся навсегда
             D                     F#m7   
Как слова совпадают с губами,
                     G                       F#sus4   F#
С пересохшим горлом — вода

Припев:

          Hm                     Em7    
Мы совпали, как птицы с небом,
             A             A/G      Dmaj7   
Как земля с долгожданным снегом
          G          G/F#     Em 
Совпадает в начале зимы,
Em/D   F#sus4    F#   Hm
Так с тобою совпали мы

Мы совпали, как птицы с небом,
Как земля с долгожданным снегом
Совпадает в начале зимы,
Так с тобою совпали мы

Am/G                                                     G/F     

   

C/E                                                     F/E   

   

Dm/C                                               Esus4

   

Gsus2/H                                                     Asus2/C#

   

Hm/A                                                            A/G     

   

Dsus4                                                         G/F#

   

Em/D                                                        F#sus4

   

 


 
Последние комментарии

"До слёз...буквально, в прямом смысле..."
 

"Спасибо"
 

"2 курс.Медляк"
 

"Отлично! Благодарю."
 

"Vielen Dank!"
Статистика

Онлайн всего: 122
Гостей: 122
Пользователей: 0
Вход на сайт