Accordium Delectus Подборка аккордов
 

Joe Dassin: A Toi



Вступление:

  Am                              Dm                                 
E|----------------------0----------1---1-0----0-------0-1-0---------|
H|-1---1-0----0-----1-3---3-1-0-----------------3---3-------3-1-3---|
G|--------------2---------------2----2------2-----------------------|
D|---2------2----------------------0--------------------------------|
A|-0----------------------------------------------------------------|
E|------------------------------------------------------------------|
   G                               C                E                
E|------------------------3-1-0----0-----0-1-0------0-------0-------|
H|-0---0----------------3-------3------1-------3-1--------0---3-1-0-|
G|-------2----2-0-----0--------------0------------------1-----------|
D|---0------0-------0---------------------------------2-------------|
A|---------------------------------3--------------------------------|
E|-3------------------------------------------------0---------------|

  Am
A toi
Am                         Dm           
A la façon que tu as d'être belle
Dm                          G             
A la façon que tu as d'être à moi
G                                        C      
A tes mots tendres un peu artificiels
             E   
Quelquefois

  Am
A toi
Am                      Dm       
A la petite fille que tu étais
Dm                         G                
A celle que tu es encore souvent
G                              C   
A ton passé, à tes secrets
C                                      E      
A tes anciens princes charmants

Припев:

      Am              
A la vie, à l'amour
A nos nuits, à nos jours
        E                         Am      
A l'éternel retour de la chance

        Am                  
A l'enfant qui viendra
Qui nous ressemblera
           G                       E   
Qui sera à la fois toi et moi


A moi
A la folie dont tu es la raison
A mes colères sans savoir pourquoi
A mes silences et à mes trahisons
Quelquefois

A moi
Au temps que j'ai passé à te chercher
Aux qualités dont tu te moques bien
Aux défauts que je t'ai caché
A mes idées de baladin

Припев.

A nous
Aux souvenirs que nous allons nous faire
A l'avenir et au présent surtout
A la santé de cette vieille terre
Qui s'en fout

A nous
A nos espoirs et à nos illusions
A notre prochain premier rendez-vous
A la santé de ces milliers d'amoureux
Qui sont comme nous


A toi
A la façon que tu as d'être belle
A la façon que tu as d'être à moi
A tes mots tendres un peu artificiels
Quelquefois

A toi
A la petite fille que tu étais
A celle que tu es encore souvent
A ton passé, à tes secrets
A tes anciens princes charmants...


Примерный вариант боя:


 
 
Последние комментарии

"слова и музыка круто"
 

"Замечательная песня."
 

"Замечательное исполнение! Очень понравилась песня!"
 

"Хороший сайт. Удачи вам!"
 

"наиболее точный разбор из 8 найденных... респект автору!"
Настройка гитары
1-ая струна E (ми)  

2-ая струна H (си)  

3-я струна G (соль) 

4-ая струна D (ре) 

5-ая струна A (ля) 

6-ая струна E (ми) 
Статистика

Онлайн всего: 192
Гостей: 191
Пользователей: 1
shoa13nik
Вход на сайт