Accordium Delectus Подборка аккордов
 

Краденое солнце: Колесо



Вступление:

Часть 1 (вступление)

  Dm     Gm/A Dm      Gm    

E|---1---1---3---1---1---3-|

H|---3---3---3---3---3---3-|

G|---2---2---3---2---2---3-|

D|-0-----------0-----------|

A|---------0---------------|

         E|---------------------3---| - 2 раза


Часть 2 (играется вся песня)

  Dm     Gm/A Dm     B6   Gm  A7    

E|---1---1---3---1---3---3---3---0-|

H|---3---3---3---3---3---3---3---2-|

G|---2---2---3---2---3---3---3---0-|

D|-0-----------0-------------------|

A|---------0-------1-----------0---|

E|-------------------------3-------|

  Dm     Gm/A Dm  B       C   F     

E|---1---1---3---1---1---1---0---1-|

H|---3---3---3---3---3---3---1---1-|

G|---2---2---3---2---3---3---0---2-|

D|-0-----------0-------------------|

A|---------0-------1-------3-------|

E|-----------------------------1---|

  Cm     Cm/G D7    Edim7 F#dim7 Adim7 Cdim7 Gm  

E|---3---3---3---2----3-----5------8-----11---3-|

H|---4---4---4---1----2-----4------7-----10---3-|

G|---5---5---5---2----3-----5------8-----11---3-|

D|-------------0--------------------------------|

A|-3--------------------------------------------|

E|---------3--------------------------------3---|

  Dm/F    Dm Bmaj7    A7  Dm    

E|---1---1---1---1---1---0---1-|

H|---3---3---3---3---3---2---3-|

G|---2---2---2---2---2---0---2-|

D|---------0---------------0---|

A|-------------1-------0-------|

E|-1---------------------------|

  Cm     Cm/G D7    Edim7 F#dim7 Adim7 Cdim7 Gm  

E|---3---3---3---2----3-----5------8-----11---3-|

H|---4---4---4---1----2-----4------7-----10---3-|

G|---5---5---5---2----3-----5------8-----11---3-|

D|-------------0--------------------------------|

A|-3--------------------------------------------|

E|---------3--------------------------------3---|

  Dm/F    Dm Bmaj7   A7  Dm     

E|---1---1---1-1--1-----0---1-|

H|---3---3---3-3--3-----2---3-|

G|---2---2---2-2--2-----0---2-|

D|---------0--------------0---|

A|-------------1--1---0-------|

E|-1--------------------------|


Часть 3=Часть 1

Dm            Gm/A     Dm    B6           Gm          A7   
Я ушёл, и всё, что был-л-о, превратилось в сон,
Dm             Gm/A Dm     B     C      F 
И на выход пока-тил-л-ось колесо
  Cm                 Cm/G   D7 Edim7 F#dim7 Adim7 Cdim7 Gm  
В полночь тихо льётся пес-ня                               у  реки...
Dm/F                    Dm  Bmaj7   A7  Dm  
Я ушёл, а ты что хоч-ч-ешь сбереги
В полночь тихо льётся песня у реки...
Я ушёл, а ты что хочешь сбереги

Я ушёл, а всё, что снилось, превратилось в быль,
Раскрутил - не докатилось, упало в пыль
Стали дни ещё длиннее и темней...
Я ушёл, а сердце бьётся рядом с ней
Стали дни ещё длиннее и темней...
Я ушёл, а сердце бьётся рядом с ней

Я ушёл, и всё, что билось, превратилось в крик,
Не на миг остановилось, не на миг
И уже не возвратятся я и ты...
Я ушёл, и всё, что было, до звезды
И уже не возвратятся я и ты...
Я ушёл, и всё, что было, до звезды

Я ушёл, и всё, что было, превратилось в сон,
И на выход покатилось колесо
Снегом замело дороги и следы...
Я ушёл, и остаёшься только ты
Снегом замело дороги и следы...
Я ушёл, и остаёшься только ты,
   Gm      Dm   
Только ты
 


 
Последние комментарии

"Автор текста - Василий Савченко."
 

"Какой тут лучше бой и перебор?."
 

"СПАСИБО ,👍🏻👍🏻👍🏻"
 

"Браво"
 

"Обалденная песня"
Статистика

Онлайн всего: 112
Гостей: 112
Пользователей: 0
Вход на сайт