Accordium Delectus Подборка аккордов
 
Главная > Л > Лесоповал > Не думай

Лесоповал: Не думай

(слова Михаила Танича, музыка Сергея Коржукова)
 


В оригинале на один и на полтора тона выше (Hm и Cm).

Можно проиграть этими же аккордами, поставив каподастр на 2-ом или на 3-ем ладу

Вступление (примерный вариант перебора):

A7             Dm              Am       E       Am             
E|---------0---------------1-------------------------------0-------|
H|-----2-----2---2-----3-----3---3-----1-------0-------1-----1---1-|
G|---0---0-----0-----2---2-----2-----2---2---1---1---2---2-----2---|
D|-----------------0-----------------------------------------------|
A|-0-------------------------------0---------------0---------------|
E|-----------------------------------------0-----------------------|

Am                           E7  
Ты не думай, не думай, что я очумел
 E7                       Am
От твоей красоты ненаглядной,
A7                      Dm  
Просто встретил тебя, разглядел, как сумел,
  Am         F7               E  
И со всеми делюсь - я не жадный
A7                       Dm  
Просто встретил тебя, разглядел, как сумел,
 Am         E             Am
И со всеми делюсь - я не жадный

Ты не думай, не думай, что там, в лагерях
Навсегда моя песенка спета
Я стою, как стоят понятые в дверях,
Твоего дожидаясь ответа
Я стою, как стоят понятые в дверях,
Твоего дожидаясь ответа

Проигрыш=Вступление

Ты не думай, не думай, что я загрубил,
Говоря с непривычки такое
Если это - любовь, значит, я полюбил,
Значит, кончено всё воровское
Если это - любовь, значит, я полюбил,
Значит, кончено всё воровское

Ты не думай, не думай, что я обалдел
До того, чтоб рассказывать байки,
И что я в том краю, где царит беспредел,
Зачерствел, как сухарик из пайки
И что я в том краю, где царит беспредел,
Зачерствел, как сухарик из пайки

Проигрыш=Вступление

Ты не думай, не думай, что я, фармазон,
Пройду мимо вот этого шанса!
И ни сам Шуфутинский, ни даже Кобзон
Не споют тебе лучше романса
И ни сам Шуфутинский, ни даже Кобзон
Не споют тебе лучше романса

Ты не думай, не думай, что я очумел
От твоей красоты ненаглядной,
Просто встретил тебя, разглядел, как сумел,
И со всеми делюсь - я не жадный
Просто встретил тебя, разглядел, как сумел,
И со всеми делюсь - я не жадный

Окончание:

A7             Dm              Am       E       Am               
E|---------0---------------1-------------------------------0---------|
H|-----2-----2---2-----3-----3---3-----1-------0-------1-----1-------|
G|---0---0-----0-----2---2-----2-----2---2---1---1---2---2-----2-----|
D|-----------------0---------------------------------------------2---|
A|-0-------------------------------0---------------0---------------0-|
E|-----------------------------------------0-------------------------|
 


 
Последние комментарии

"вспомнила молодость"
 

"Вместо с/ н луше Сm"
 

"я в восторге! Есть вариант другого исполнения. хочу пробовать этот вариант."
 

"Это бывший вратарь футбольной команды Динамо (Киев)!У меня есть его автограф! А кто написал эту песню, увы, неизвестно!?"
 

"Большое спасибо!"
Статистика

Онлайн всего: 129
Гостей: 129
Пользователей: 0
Вход на сайт