Accordium Delectus Подборка аккордов
 
Главная > Песни из кино - и мультфильмов > Любовь - волшебная страна

Валентина Пономарёва: Любовь - волшебная страна (фильм Жестокий романс)



  Gm                       Cm   D7                     Gm                    

E|-3------------------------3---------------------------3-------------------|

H|-3------------------------4----3----------------------3-------------------|

G|-3------------------------5----5----------------------3-------------------|

D|-5------------------------5----4----------------------5-------------------|

A|-5------------------------3----5----------------------5-------------------|

E|-3------------------------3---------------------------3-------------------|

     Я, словно бабочка к огню,     стремилась так неодолимо                  

 

     G                   Cm         Cm/A   D#7  D7                           

E|---3--------------------3-----------3----------------10-------------------|

H|---3--------------------4-----------4-----4----3--------------------------|

G|---4--------------------5-----------5-----6----5---7----------------------|

D|---5--------------------5-----------5-----5----4--------------------------|

A|---5--------------------3-----------0-----6----5--------------------------|

E|---3--------------------3-------------------------------------------------|

В любовь - волшебную страну, где назовут меня люби-и-и-мой                   

 

    Gm                Gm7             D#maj7             Dsus4     D         

E|-----------3-----------------3-----------------3-------------3---2--------|

H|-------3-------3---------3-------3---------3-------3-----------3---3------|

G|-----3---3---3---3-----3---3---3---3-----3---3---3---3-----2---------2----|

D|---5-----------------3-----------------1-----------------0----------------|

A|--------------------------------------------------------------------------|

E|--------------------------------------------------------------------------|

Где бе-е-е-е-е-е-е-сподобен   день    любой,                                

 

     Gm                Gm7             D#maj7             Dsus4     D        

E|------------3-----------------3-----------------3-------------3---2-------|

H|--------3-------3---------3-------3---------3-------3-----------3---3-----|

G|------3---3---3---3-----3---3---3---3-----3---3---3---3-----2---------2---|

D|-0--5-----------------3-----------------1-----------------0---------------|

A|--------------------------------------------------------------------------|

E|--------------------------------------------------------------------------|

      Где не-е-е-е-е-е  страшилась  я   б   ненастья                                  

 

     Cm7                F                Bmaj7                               

E|------------3-----------------1------------------1------------------------|

H|--------4-------4---------1-------1----------3-------3--------------------|

G|------3---3---3---3-----2---2---2---2------2---2---2---2------------------|

D|-0--------------------3---------------------------------------------------|

A|----3------------------------------------1--------------------------------|

E|--------------------------------------------------------------------------|

 Прекрасная        страна-а      -      любовь,                              

 

         D#maj7               A               D#dim7   F#dim7   Adim7                 D7               

E|-----------3-----------------0------------------------------------8-------------------|

H|-------3-------3---------2-------2----------1--------4--------7---------------------3-|

G|-----3---3---3---3-----2---2---2---2------2---2----5---5----8---8-----------------5---|

D|---1------------------------------------1--------4--------7---------------------4-----|

A|---------------------0--------------------------------------------------------5-------|

E|--------------------------------------------------------------------------------------|

Страна       -      любовь, Ведь только в не-е-е-е-е-ей                 бывает счастье   



Пришли иные времена:
Тебя то нет, то лжёшь, не морщась
Я поняла, любовь - страна,
Где каждый человек - притворщик

Моя беда, а не вина,
Что я наивности образчик
Любовь - обманная страна, обманная страна,
И каждый житель в ней обманщик


Зачем я плачу пред тобой
И улыбаюсь так некстати?
Неверная страна - любовь,
Там каждый человек - предатель

Но снова прорастёт трава
Сквозь все преграды и напасти
Любовь - весенняя страна, весенняя страна,
Ведь только в ней бывает счастье,

Gm 

E|-------3---------|

H|-------3---------|

G|-------3---------|

D|-------5---------|

A|-------5---------|

E|-------3---------|

Бывает счастье...   

 


 
Последние комментарии

"Спасибо! отличная песня."
 

"Интересно кто так бездарно подбирает?! В оригинале слабо что ли?"
 

"Простая и в тоже время прекрасная,душевная песня.Спасибо!"
 

"Дзякуй"
 

"Показать окорды"
Статистика

Онлайн всего: 54
Гостей: 54
Пользователей: 0
Вход на сайт