Accordium Delectus Подборка аккордов
 
Главная > Б > Барыкина Нелли > Я пройду

Нелли Барыкина: Я пройду



Вступление:

E|-------0--------0--0--------0--------------0--------0--0--------0---------------|

H|-----0--------0------7--------7----------0--------0------7--------7-------------|

G|---0--------0----------8--------8------5--------5----------8--------8-----------|

D|-9--------9--------------9--------9--7--------7--------------9--------9---------|

A|--------------------------------------------------------------------------------|

E|--------------------------------------------------------------------------------|

 

E|-------0--------0--0--------0--------------0--------0--0--------0-------------0-|

H|-----0--------0------7--------7----------0--------0------7--------7-----------0-|

G|---0--------0----------8--------8------5--------5----------8------------------0-|

D|-9--------9--------------9--------9--7--------7--------------9------8~9~8-7-5-2-|

A|------------------------------------------------------------------------------2-|

E|------------------------------------------------------------------------------0-|

 


Em               Hm                         
Я не хочу    дарить любовь
G                                     D                        
Тем, кто не знает совершенства чистоты,
Am                  C                G        
Чей мир исполнен пустоты,
Am              Am/F#            H7     
И кто не ждёт другого дня

Я не хочу дарить любовь
Тем, кто не смог поднять своих фальшивых глаз,
И косность слов, нелепость фраз
Совсем не радуют меня

Припев:

         Em       G            D    
Я пройду ни много и ни мало,
             Am       C          Dsus4  D
Перейду преграды и мосты,
H7      Em        G               D     
И вдохну, во чтобы то не стало,
          Am           C                 H7
Воздух гор, как праздник чистоты


Я не хочу хранить мечты
Тех, кто не красит мир в небесные цвета,
И мне понятна красота
Лесов российских и полей

Я не хочу хранить мечты
Тех, кто желает только денег и вина,
И мне известна тишина
В объятиях ласковых ночей

Припев.

Проигрыш: Em  C  G  D  Dsus4-D - 8 раз Am  Am  H7sus4  H7

Припев - 2 раза.

Окончание: C  D  Em

Бой на гитаре (примерный вариант):

 


 
Последние комментарии

"Красивая песня."
 

"Классно поёт"
 

"Спасибо вам ребята!!! Просто родник чистоты музыки....Песняры- на века!!!!!"
 

"про путина послушать бы уже хотелось"
 

"Вот, спасибо огромное! Так оперативно! Здорово!!!! Благодарю, благодарю, благодарю!!! 🙏🏻🙏🏻🙏🏻"
Статистика

Онлайн всего: 98
Гостей: 98
Пользователей: 0
Вход на сайт