Accordium Delectus Подборка аккордов
 
Главная > Дуэты > Старченков, Мараков: Стране со мной не повезло

Николай Старченков и Леонид Мараков: Стране со мной не повезло



Вступление:

                     Am                Dm                 E7                 Am  E7
E|-8-8-8-7-5---------5-5-5-------------------------------------------|
H|------------5------------8-6---------8-8-8-6-----------------------|
G|---------------5--------------7---------------9--7-------------7-9-|
D|---------------------------------9------------------9---9-9-10-----|
A|-------------------------------------------------------------------|
E|-------------------------------------------------------------------|
                  Am                Dm                 E7           Am   E7   
E|-8-8-8-7-5---------5-5-5-------------------------------------------|
H|------------5------------8-6---------8-8-8-6-----------------------|
G|---------------5--------------7---------------9--7-----------------|
D|---------------------------------9------------------9--10--7-------|
A|-------------------------------------------------------------------|
E|-------------------------------------------------------------------|

                 Am               Dm
Стране со мной не повезло,
                        E7     Am  E7
Мне со страною тоже
             Am              Dm
Она на мне срывает зло
                 G        C
И корчит злые рожи

            Gm             A7    
А мне на это наплевать -
                      Gm      A7 Dm  E7
Я хвост держу трубо-о-ю:
              Am                  Dm   
Страна ещё не значит - мать,
    F7  E7              Am 
А Ро-о-одина - другое

Проигрыш:

                  Am                Dm                 E7           Am   E7   
E|-8-8-8-7-5---------5-5-5-------------------------------------------|
H|------------5------------8-6---------8-8-8-6-----------------------|
G|---------------5--------------7---------------9--7-----------------|
D|---------------------------------9------------------9--10--7-------|
A|-------------------------------------------------------------------|
E|-------------------------------------------------------------------|

Страна по мне стреляет влёт
И травит стукачами,
Она меня собой гнетёт
Бессонными ночами

А я себе твержу: держись!
И хвост держу трубою:
Страна ещё не значит - жизнь,
А Родина - другое

Проигрыш:

                  Am                Dm                 E7           Am   E7   
E|-8-8-8-7-5---------5-5-5-------------------------------------------|
H|------------5------------8-6---------8-8-8-6-----------------------|
G|---------------5--------------7---------------9--7-----------------|
D|---------------------------------9------------------9--10--7-------|
A|-------------------------------------------------------------------|
E|-------------------------------------------------------------------|

Страна хотела бы в гробу
Видать меня в "Сучане"
Она кривит свою губу
И от меня скучает

Но как потуг её нелеп -
Я хвост держу трубою:
Страна еще не значит - хлеб,
А Родина - другое

Проигрыш:

                  Am                Dm                 E7           Am   E7   
E|-8-8-8-7-5---------5-5-5-------------------------------------------|
H|------------5------------8-6---------8-8-8-6-----------------------|
G|---------------5--------------7---------------9--7-----------------|
D|---------------------------------9------------------9--10--7-------|
A|-------------------------------------------------------------------|
E|-------------------------------------------------------------------|

Стране со мной никак нельзя,
Мне тоже с ней не в ногу
Она не лезет мне в друзья,
А я ей на подмогу

Я в ней вообще живу с трудом,
Но хвост держу трубою:
Страна ещё не значит - дом,
А Родина - другое

Проигрыш:

                  Am                Dm                 E7           Am   E7   
E|-8-8-8-7-5---------5-5-5-------------------------------------------|
H|------------5------------8-6---------8-8-8-6-----------------------|
G|---------------5--------------7---------------9--7-----------------|
D|---------------------------------9------------------9--10--7-------|
A|-------------------------------------------------------------------|
E|-------------------------------------------------------------------|

Стране со мной не повезло,
Мне со страною тоже
В своей стране я как изгой,
На что это похоже?

Но я, надежды не тая,
Свой хвост держу трубою:
Страна совсем не значит - я,
Но Родина - другое!

Окончание:

                  Am                Dm                 E7                 Am  E7         
E|-8-8-8-7-5---------5-5-5------------------------------------------------------|
H|------------5------------8-6---------8-8-8-6----------------------------------|
G|---------------5--------------7---------------9--7-------------7-9------------|
D|---------------------------------9------------------9---9-9-10----------------|
A|------------------------------------------------------------------------------|
E|------------------------------------------------------------------------------|
                  Am                Dm                 E7           Am E7 Am             
E|-8-8-8-7-5---------5-5-5------------------------------------------------------|
H|------------5------------8-6---------8-8-8-6---------------------10--10-10-10-|
G|---------------5--------------7---------------9--7------------9---------------|
D|---------------------------------9------------------9--10--7------------------|
A|------------------------------------------------------------------------------|
E|------------------------------------------------------------------------------|

Бой на гитаре (примерный вариант):

 


 
Последние комментарии

"Все не верно - так и слух потерять можно"
 

"Поберечь бы шанс назавтра"
 

"Какой раз слушаю эту песню и эти слова и по телу бегут мурашки. Сколько их, не долюбивших и недоживших "три дня и три ночи до весны..""
 

"... а вот в исполнениииавтора песни пол века назад... https://zaycev.net/artist/115135?spa=true&trackId..."
 

"Шедевр!!!"
Статистика

Онлайн всего: 20
Гостей: 20
Пользователей: 0
Вход на сайт